Guitar Tabs for Jenna Jeena

Tabs for Song : Jeena Jeena

dehleez pe mere dil ki 
E|-----------------------------------------------
B|-----1------1h3--1--3-----1---3\5--3--1--1-----
G|--2--------------------------------------------
D|-----------------------------------------------
A|-----------------------------------------------
E|-----------------------------------------------

jo rakhe hei tune kadam
E|-----------------------------------
B|-----1---1h3--1--3--1--------------
G|--2--------------------2-----0-----
D|--------------------------3--------
A|-----------------------------------
E|-----------------------------------

tere naam pe meri zindgi
E|--------------------------------------------
B|-----1---1h3--1--3-----1---3\5--3--1--1-----
G|--2-----------------------------------------
D|--------------------------------------------
A|--------------------------------------------
E|--------------------------------------------

likh di mere humdum
E|--1--1---0h1--1--0-----------------------
B|------------------------1h3--3--1--1-----
G|-----------------------------------------
D|-----------------------------------------
A|-----------------------------------------
E|-----------------------------------------

haan seekha mene jeena jeena kese jeena
E|--------------------------------------------------------
B|--1-----------------------------------------------------
G|-----2--0-----0-----0--2-----0---2h3--0--------0--2-----
D|-----------3-----------------------------3--------------
A|--------------------------------------------------------
E|--------------------------------------------------------

haan sikha mene jeena mere humdum
E|--------------------------------------------
B|--1-----------------3--1--3--1--------------
G|-----2--0-----0--2--------------2-----0-----
D|-----------3-----------------------3--------
A|--------------------------------------------
E|--------------------------------------------

haan sikha kabhi jeena jeena ,kaise jeena
E|-----------------------------------------------------
B|--1--------------------------------------------------
G|-----2--0-----0-----0--2-----0---2h3--0-----0--2-----
D|-----------3-----------------------------3-----------
A|-----------------------------------------------------
E|-----------------------------------------------------

na sikha jeena tere bina humdum
E|-----------------------------------------------
B|--1--------------------3--1--3--1--------------
G|-----2--0-----0-----2--------------2-----0-----
D|-----------3--------------------------3--------
A|-----------------------------------------------
E|-----------------------------------------------

sacchi si hai ye tareefein
E|--------------------------------
B|--------------------------------
G|--2--2--0--2--0-----------2-----
D|-----------------3--2--3--------
A|--------------------------------
E|--------------------------------

dil se jo mene kari hai
E|--------------------------------
B|--------------------------------
G|--2--2--0--2--0-----------0-----
D|-----------------3--2--3--------
A|--------------------------------
E|--------------------------------

jo tu mila to saji hai
E|--------------------------------
B|--------------------------------
G|--2--2--0--2--0-----------2-----
D|-----------------3--2--3--------
A|--------------------------------
E|--------------------------------

duniya meri humdum
E|-----------------------------------------
B|---------------------1h3--3--1-----------
G|--2--2---2h3-----3--------------3--2-----
D|-----------------------------------------
A|-----------------------------------------
E|-----------------------------------------

ho asmaan mila jameen ko meri
E|--------------------------------------------
B|-----1---1h3--1--3-----1---3\5--3--1--1-----
G|--2-----------------------------------------
D|--------------------------------------------
A|--------------------------------------------
E|--------------------------------------------

adhe adhe poore hai hum
E|-----------------------------------
B|-----1---1h3--1--3--1--------------
G|--2--------------------2-----0-----
D|--------------------------3--------
A|-----------------------------------
E|-----------------------------------

tere naam pe meri zindgi
E|--------------------------------------------
B|-----1---1h3--1--3-----1---3\5--3--1--1-----
G|--2-----------------------------------------
D|--------------------------------------------
A|--------------------------------------------
E|--------------------------------------------

likh di mere humdum
E|--1--1---0h1--0-----------------------
B|---------------------1h3--3--1--1-----
G|--------------------------------------
D|--------------------------------------
A|--------------------------------------
E|--------------------------------------

haan seekha mene jeena jeena kese jeena
E|-----------------------------------------------------
B|--1--------------------------------------------------
G|-----2--0-----0-----0--2-----0---2h3--0-----0--2-----
D|-----------3-----------------------------3-----------
A|-----------------------------------------------------
E|-----------------------------------------------------

haan sikha mene jeena mere humdum
E|--------------------------------------------
B|--1-----------------3--1--3--1--------------
G|-----2--0-----0--2--------------2-----0-----
D|-----------3-----------------------3--------
A|--------------------------------------------
E|--------------------------------------------

haan sikha kabhi jeena jeena ,kaise jeena
E|-----------------------------------------------------
B|--1--------------------------------------------------
G|-----2--0-----0-----0--2-----0---2h3--0-----0--2-----
D|-----------3-----------------------------3-----------
A|-----------------------------------------------------
E|-----------------------------------------------------

na sikha jeena tere bina humdum
E|-----------------------------------------------
B|--1--------------------3--1--3--1--------------
G|-----2--0-----0-----2--------------2-----0-----
D|-----------3--------------------------3--------
A|-----------------------------------------------
E|-----------------------------------------------
tabs and chords, guitar tabs, music transcription, music technology, deep learning, music information retrieval, transcribe into tabs & chords, chordify, music renditions, songsterr, reverbnation, tabulature, bollywood chords, ultimate guitar, yousician, guitar lessons, acoustic guitar, electric guitar, guitar tuner, 911 tabs