Guitar Tabs for Jason Mraz - I'm Yours

Jason Mraz - I'm Yours

CAPO in 2nd Fret

Intro

E|---5/7--5------5/7--4---5/7--------------
B|---5/7--5------5/7--5---5/7--7-----------
G|-----------------------------6---6/7-----
D|--------------------------------------7--
A|-----------------------------------------
E|-----------------------------------------


E|---5/7--5------5/7--4---5/7--------------
B|---5/7--5------5/7--5---5/7--7--7---7h---
G|-----------------------------6--6---6h7--
D|-----------------------------------------
A|-----------------------------------------
E|-----------------------------------------

1st Verse 

Strum Pattern -> DXX-DXX-DXXX

       A
Well, you done, done me and you bet I felt it

    E
I tried to be chill but you're so hot that I melted

   F#m                                       D
I fell right through the cracks and now I'm trying to get back
             
            A
Before the cool done run out I'll be giving it my bestest


     E
And nothing's gonna stop me but divine intervention

   F#m                            D
I reckon it's again my turn to win some or learn some

Chorus

 A               E           F#m
I won't hesitate no more, no more

           D
It cannot wait, I'm yours

Pos-Chorus

    1st Guitar
    
       A  E  F#m  D
    
    2nd Guitar
    
E|---5/7--5------5/7--4---5/7--------------
B|---5/7--5------5/7--5---5/7--7-----------
G|-----------------------------6---6/7-----
D|--------------------------------------7--
A|-----------------------------------------
E|-----------------------------------------

2nd Verse

A
   Well, open up your mind and see like me

E
   Open up your plans and damn you're free
   
F#m
   Look into your heart and you'll find

   D
Love, love, love

 A
   Listen to the music of the moment maybe sing with me
      
E                    
  I like peaceful melody

F#m
   And it's our God-forsaken right to be 
   
       D                   D#5-
Loved, loved, loved, loved, loved
        
2nd Chorus

 A               E           F#m
I won't hesitate no more, no more

           D
It cannot wait, I'm sure

            A             E                    F#m
There's no need to complicate, Our time is short
             
             D
This is our fate, I'm yours

2nd Pos-Chorus

A        E/G#        F#m
  Do do do do do do do do do
 E              D     D#5-
Do do do do do do, do do
   


A        E/G#        F#m
  Do do do do do do do do do
 E              D    D#5-
Do do do do do do, u-humm

3rd Verse

                    A
I've been spending way too long checking my tongue in the mirror

     E
And bending over backwards just to try to see it clearer

     F#m                                   D
My breath fogged up the glass and so I drew a new face and laughed

   A
I guess what I'm saying is there ain't no better reason

    E
To rid yourself of vanities and just go with the seasons

F#m                               D
    It's what we aim to do, our name is our virtue
     
Final Chorus

 A               E           F#m
I won't hesitate no more, no more

           D
It cannot wait, I'm sure

            A             E                    F#m
There's no need to complicate, Our time is short
             
             D
This is our fate, I'm yours

 A               E           F#m
I won't hesitate no more, no more

           D
It cannot wait, I'm sure

            A             E                    F#m
There's no need to complicate, Our time is short
             
             D
This is our fate, I'm yours

(Fade out...)

----------------------------------------------------------------------------

Chords

    A     E     F#m   D    E/G#  D#5- 
E|--5-----------------------4--------
B|--5-----9-----10----------5-----10-
G|--6-----9-----11----11----4-----8--
D|--7-----9-----11----12----6-----7--
A|--7-----11----9-----12----7-----6--
E|--5-----0-----------10----4--------

tabs and chords, guitar tabs, music transcription, music technology, deep learning, music information retrieval, transcribe into tabs & chords, chordify, music renditions, songsterr, reverbnation, tabulature, bollywood chords, ultimate guitar, yousician, guitar lessons, acoustic guitar, electric guitar, guitar tuner, 911 tabs