Ukulele Tabs for I'm Yours- Jason Mraz

(/) Slide Up  (\) Slide Down  (h) Hammer On  (p) Pull Off  (b) Bend (r) Release (v) Vibrato (x) Muted

I'm Yours- Jason Mraz

A|------3/5--3------3/5--2--------------------------
E|------3/5--3------3/5--3------3/5--0-----0--0--1--
C|------------------------------2/4--0-----0--0--0--
G|--------------------------------------------------

Well you done done me and you bet I felt it I tried to be still but youre so hot that I melted
A|--7--7--7--3--3--3--3--3--3--5--7-----5--7--2--2--2--2--2--2--2--2--2--3--5--
E|-----------------------------------------------------------------------------
C|-----------------------------------------------------------------------------
G|-----------------------------------------------------------------------------

I fell right through the cracks, and now I'm trying to get back. Before the cool done run out 
A|--3--7--3--3--2--0-----0--0--0--------8--7-----7--7--7--7--3--3--3--
E|--------------------------------1--1--------------------------------
C|--------------------------------------------------------------------
G|--------------------------------------------------------------------

I'll be giving it my bestest and nothing's gonna stop me but divine intervention. I reckon
A|--3--3--3--3--3--3--5--7-----5--7--2--2--2--2--2--2--2--2--2--2--3--5-----3--7--3--
E|-----------------------------------------------------------------------------------
C|-----------------------------------------------------------------------------------
G|-----------------------------------------------------------------------------------

it's again my turn, to win some or learn some but i wont hesitate no more no more it cannot
A|--3--3--3--2--0-----0-----0-----8--7-----7--7--3-----7--5--2-----5--3-----3--0--3--
E|-----------------------1-----1--------------------3-----------3--------------------
C|-----------------------------------------------------------------------------------
G|-----------------------------------------------------------------------------------

wait I'm yours well open up your mind and see like me open up your plans and then youre free
A|-----8--7--5--3-----3-----3--3--3--3--3--3--3--3--7--10----10-7--10-7--10-12-7--5--7--
E|--1--------------3--------------------------------------------------------------------
C|--------------------------------------------------------------------------------------
G|--------------------------------------------------------------------------------------

look into your heart and youll find love love love love listen to the music of the moment
A|--7--7--7--10-5--3--5--3-----8--7--3--------7--3--3--3--3--3--3--3--3--3--
E|--------------------------------------3-----------------------------------
C|--------------------------------------------------------------------------
G|--------------------------------------------------------------------------

people dance and sing were just one big family and its our godforsaken right to be loved
A|--3--3--3--7--10----10-7--10-12-7--5--7-----7--7--10-5--5--5--7--5--3--3--8--
E|-----------------------------------------------------------------------------
C|-----------------------------------------------------------------------------
G|-----------------------------------------------------------------------------

loved loved loved loooved so i wont hesitate no more no more it can not wait im sure
A|--7--3-----7--5-----7--7--3-----7--5--7--5--2-----5--3-----3--0--3-----8--7--5--3--
E|--------3--------------------3-----------------3--------------------1--------------
C|-----------------------------------------------------------------------------------
G|-----------------------------------------------------------------------------------

theres no need to complicate our time is short this is our fate im yours doo doo
A|--5--3--7--3-----7--5--2-----5--3-----3--0--3-----8---7\3-----3--5--7---5\3--
E|--------------3-----------3--------------------1-----------------------------
C|-----------------------------------------------------------------------------
G|-----------------------------------------------------------------------------

doo doo doo doo do you want to come on schooch on over closer dear
A|--12-10-7--5--3--5--7-----5--7--10-7--5--3--0-----7--10-7--5--3--0-----
E|-----------------------------------------------------------------------
C|-----------------------------------------------------------------------
G|-----------------------------------------------------------------------

and i will nibble your ear doovha ba ba waa waa wa wahaa waah wooaah wooaah 
A|--0--0--0--0--3--0--7--5--3-----3--7--10-7--5--3--0--3-----10-7--5--3--3--5--7--
E|--------------------------------------------------------------------------------
C|--------------------------------------------------------------------------------
G|--------------------------------------------------------------------------------

wooaaah woooah wooah wooahh woooah  i been spending way too long checking my tongue in
A|--10-7--5--5--3--7--10-7--5--3--0--3-----7--7--7--7--7--3--3--3--3--3--3--3--
E|-----------------------------------------------------------------------------
C|-----------------------------------------------------------------------------
G|-----------------------------------------------------------------------------

the mirror and bending over backwards just to try and see it clearer but my breath fogged
A|--3--5--7-----5--7--2--2--2--2--2--2--2--2--2--2--2--3--5-----3--3--7--3--
E|--------------------------------------------------------------------------
C|--------------------------------------------------------------------------
G|--------------------------------------------------------------------------

up the glass so i drew a new face and i laughed i guess what i been saying is there aint
A|--3--2--0-----0--0-----------------8--7-----7--7--3--3--3--3--3--3--3--3--3--
E|--------------------1--1--1--1--1--------------------------------------------
C|-----------------------------------------------------------------------------
G|-----------------------------------------------------------------------------

no better reason to rid yourself of vanities and just go with the seasons its what we aim
A|--3--3--3--5--7-----7--7--2--2--2--2--2--2--2--2--2--2--2--3--5-----5--7--3--3--
E|--------------------------------------------------------------------------------
C|--------------------------------------------------------------------------------
G|--------------------------------------------------------------------------------

to do our name is our virtue but i wont hesitate no more no more it cannot wait im yours
A|--2--0-----0-----0-----8--7-----7--7--3-----7--5--2-----5--3-----3--0--3-----8---7\3--
E|--------------1-----1--------------------3-----------3--------------------1-----------
C|--------------------------------------------------------------------------------------
G|--------------------------------------------------------------------------------------

well open up your mind and see like me open up your plans and damn youre free
A|--3--3--3--3--3--3--3--3--7--10----10-7--10-7--10-12-7--5--7--
E|--------------------------------------------------------------
C|--------------------------------------------------------------
G|--------------------------------------------------------------

look into your heart and youll find the sky is yours so please dont please dont please dont
A|--7--7--7--10-7--5--7--3-----3--12-7--7--5--3-----7--7--10-7--10-7--10-
E|-----------------------------------------------------------------------
C|-----------------------------------------------------------------------
G|-----------------------------------------------------------------------

theres no need to complicate our time is short this is this is this is our fate
A|--7--10-12-7--5--5--7--3-----7--12-7--7--5--3-----5--3--5--3--5--3--5--3--
E|--------------------------------------------------------------------------
C|--------------------------------------------------------------------------
G|--------------------------------------------------------------------------

im yours 
A|--7--5--3--0-----7--5--
E|--------------3--------
C|-----------------------
G|-----------------------

Paste any tab in acousterr's tab maker and we'll play it !!!
Now supports capo and sound effects for vibrato/pull-off/hammer/bends/mutes etc !!! Checkout help section
tabs and chords, guitar tabs, music contests, music covers, songsterr, reverbnation, renditions, tabulature, bollywood chords, ultimate guitar, yousician, guitar lessons, torrins, fender, gibson, acoustic guitar, electric guitar, youtube covers, gootar, guitar tuner, A-Z tabs, 911 tabs