Ukulele Tabs for I'm Yours Harmony

(/) Slide Up  (\) Slide Down  (h) Hammer On  (p) Pull Off  (b) Bend (r) Release (v) Vibrato (x) Muted

I'm Yours Harmony Part- to be used in conjunction with the I'm Yours tab I posted

So I wont hesitate no more no more this it cannot wait Im yours
A|--3--3--------3--2--------2--0-----0-----0-----3--3--2--0--
E|--------3--0--------3--0--------------0--------------------
C|--------------------------------------------0--------------
G|-----------------------------------------------------------

love love love love
A|--3--3--------
E|--------3--0--
C|--------------
G|--------------
loved loved loved loved looooved
A|--3--3--------3--0--
E|--------3--0--------
C|--------------------
G|--------------------

so i wont hesitate no more no more this is our fate im sure theres no need to complicate
A|--3--3--------3--2--------2--0-----0-----0-----3--3--2--0--
E|--------3--0--------3--0--------------0--------------------
C|--------------------------------------------0--------------
G|-----------------------------------------------------------

A|--
E|--
C|--
G|--

Paste any tab in acousterr's tab maker and we'll play it !!!
Now supports capo and sound effects for vibrato/pull-off/hammer/bends/mutes etc !!! Checkout help section
tabs and chords, guitar tabs, music transcription, music technology, deep learning, music information retrieval, transcribe into tabs & chords, chordify, music renditions, songsterr, reverbnation, tabulature, bollywood chords, ultimate guitar, yousician, guitar lessons, acoustic guitar, electric guitar, guitar tuner, 911 tabs