Guitar Tabs for Jaha daal daal per sone ki

Tabs for Song : Jahaan daal-daal par sone ki

Jahaan daal-daal par sone ki
E|--------------------------------------------
B|--------------------------------1--1--1-----
G|--------0--3--3--3--3--0--3--3--------------
D|--1--3--------------------------------------
A|--------------------------------------------
E|--------------------------------------------

chidiyaan karati hai basera
E|--------------------------------------------
B|--1-----1--4--4--3--3--1--1-----------------
G|-----3-----------------------3--3--2--3-----
D|--------------------------------------------
A|--------------------------------------------
E|-----------------------------------------

Wo bhaarat desh hai mera
E|--------------------------------------------
B|--------------------------------------------
G|--------0--3--3--0--0--------------0--0-----
D|--1--3-----------------3--1--3--3-----------
A|--------------------------------------------
E|--------------------------------------------

Wo bhaarat desh hai mera
E|--------------------------------------------
B|--------------------------------------------
G|--------0--3--3--0--0--------------0--0-----
D|--1--3-----------------3--1--3--3-----------
A|--------------------------------------------
E|--------------------------------------------

Jahaan saty, ahinsa aur dharm ka
E|--------------------------------------------
B|--------------------------------1--1--1-----
G|--------0--3--3--3--3--0--3--3--------------
D|--1--3--------------------------------------
A|--------------------------------------------
E|--------------------------------------------

pag-pag lagata dera
E|--------------------------------------------
B|--1-----1--4--4--3--3--1--1-----------------
G|-----3-----------------------3--3--2--3-----
D|--------------------------------------------
A|--------------------------------------------
E|--------------------------------------------

Wo bhaarat desh hai mera
E|--------------------------------------------
B|--------------------------------------------
G|--------0--3--3--0--0--------------0--0-----
D|--1--3-----------------3--1--3--3-----------
A|--------------------------------------------
E|--------------------------------------------

Jay bhaarati, jay bhaarati, jay bhaarati 
E|--------------3--------------------------6--3--3--3-----
B|--4--4--4--------4--4--4-----4--4--4--------------------
G|-----------3--------------------------3-----------------
D|--------------------------------------------------------
A|--------------------------------------------------------
E|--------------------------------------------------------

Ye dharati wo jahaan rriashimuni 
E|-----------------------1--------------
B|--------4--4--4--4--3-----4--4--4-----
G|--0--3--------------------------------
D|--------------------------------------
A|--------------------------------------
E|--------------------------------------

japate prabhu naam ki maala
E|--------------------------------------
B|--4--3--3--3--3--3--1--1--3--3--------
G|--------------------------------3-----
D|--------------------------------------
A|--------------------------------------
E|--------------------------------------

Jahaan har baalak ik mohan hai 
E|-----------------------1--------------
B|--------4--4--4--4--3-----4--4--4-----
G|--0--3--------------------------------
D|--------------------------------------
A|--------------------------------------
E|--------------------------------------

aur raadha ik ik baala
E|--------------------------------------
B|--4--3--3--3--3--3--1--1--3--3--------
G|--------------------------------3-----
D|--------------------------------------
A|--------------------------------------
E|--------------------------------------

Jahaan suraj sabase pahale a kar
E|--------------------------------------------
B|--------------------------------1--1--1-----
G|--------0--3--3--3--3--0--3--3--------------
D|--1--3--------------------------------------
A|--------------------------------------------
E|--------------------------------------------

daale apana fera
E|--------------------------------------------
B|--1-----1--4--4--3--3--1--1-----------------
G|-----3-----------------------3--3--2--3-----
D|--------------------------------------------
A|--------------------------------------------
E|--------------------------------------------

Wo bhaarat desh hai mera ...
E|--------------------------------------------
B|--------------------------------------------
G|--------0--3--3--0--0--------------0--0-----
D|--1--3-----------------3--1--3--3-----------
A|--------------------------------------------
E|--------------------------------------------

Wo bhaarat desh hai mera ...
E|--------------------------------------------
B|--------------------------------------------
G|--------0--3--3--0--0--------------0--0-----
D|--1--3-----------------3--1--3--3-----------
A|--------------------------------------------
E|--------------------------------------------

tabs and chords, guitar tabs, music contests, music covers, songsterr, reverbnation, renditions, tabulature, bollywood chords, ultimate guitar, yousician, guitar lessons, torrins, fender, gibson, acoustic guitar, electric guitar, youtube covers, gootar, guitar tuner, A-Z tabs, 911 tabs