Guitar Tabs for It's Only Hope

(/) Slide Up  (\) Slide Down  (h) Hammer On  (p) Pull Off  (b) Bend (r) Release (v) Vibrato (x) Muted

Tabs for Song : 
BPM : 200

Song lyrics here


Song lyrics here
E|-----------0--------0--------0--------0--------0--------0--------0--------0--------0--------0--------
B|--------0-----0--------0--------0--------0--------2--------2--------4--------4--------5--------5-----
E|-----0-----------0--------0--------0--------0--------0--------0--------0--------0--------0--------0--
C|-----------------------------------------------------------------------------------------------------
A|-----------------------------------------------------------------------------------------------------
E|--0--------------------------------------------------------------------------------------------------

E|--0--------0--------0--------0--------0--------0--------12)---------------------------12)------12)------
B|-----7--------7--------9--------9--------12-------12----------12)------------------12)---12)------12)---
E|--------0--------0--------0--------0--------0--------0--------------12)---------12)---------12)------12)
C|--------------------------------------------------------------------------------------------------------
A|--------------------------------------------------------------------------------------------------------
E|-----------------------------------------------------------------------------12)------------------------

E|--12)---------------12)------12)------12)---------------12)------12)------12)---------------12)---------(7)---(5)
B|-----12)---------12)---12)------12)------12)---------12)---12)------12)------12)---------12)---12)------(7)---(5)
E|--------12)---12)---------12)------12)------12)---12)---------12)------12)------12)---12)---------12)---(7)---(5)
C|-----------------------------------------------12)---------------------------------------------------------------
A|-----------12)---------------------------------------------------------------------12)---------------------------
E|-----------------------------------------------------------------------------------------------------------------

E|-----------0--------0--------12)---------------0--------0--------12)---------------0--------0--------(7)------
B|--------0-----0--------0--------12)---------0-----0--------0--------12)---------0-----0--------0--------(7)---
E|-----0-----------0--------0--------12)---0-----------0--------0--------12)---0-----------0--------0--------(7)
C|--------------------------------------------------------------------------0-----------------------------------
A|--------------------------------------0-----------------------------------------------------------------------
E|--0-----------------------------------------------------------------------------------------------------------

E|-----------0--------0--------(5)------------------0--------0--------12)---------------0--------0--------12)------
B|--------0-----0--------0--------(5)------------0-----0--------0--------12)---------0-----0--------0--------12)---
E|-----0-----------0--------0--------(5)------0-----------0--------0--------12)---0-----------0--------0--------12)
C|-----------------------------------------------------------------------------------------------------------------
A|--0--------------------------------------------------------------------------0-----------------------------------
E|-----------------------------------------0-----------------------------------------------------------------------

E|-----------0--------0--------(7)---------------0--------0--------(5)---------------12)------12)------12)------
B|--------0-----0--------0--------(7)---------0-----0--------0-----(5)------------12)---12)------12)------12)---
E|-----0-----------0--------0--------(7)---0-----------0--------0--(5)---------12)---------12)------12)------12)
C|--0-----------------------------------------------------------------------------------------------------------
A|--------------------------------------0-----------------------------------------------------------------------
E|--------------------------------------------------------------------------12)---------------------------------

E|-----------12)------12)------12)---------------12)------12)------12)---------------12)---------(7)---(5)---
B|--------12)---12)------12)------12)---------12)---12)------12)------12)---------12)---12)------(7)---(5)---
E|-----12)---------12)------12)------12)---12)---------12)------12)------12)---12)---------12)---(7)---(5)---
C|--------------------------------------12)------------------------------------------------------------------
A|--12)---------------------------------------------------------------------12)------------------------------
E|-----------------------------------------------------------------------------------------------------------

E|-----------0--------0--------0-----------------0--------0--------0-----------------0--------0--------0--------
B|--------0-----0--------2--------5-----------0-----0--------5--------7-----------0-----0--------7--------9-----
E|-----0-----------0--------0--------0-----0-----------0--------0--------0-----0-----------0--------0--------0--
C|--------------------------------------------------------------------------0-----------------------------------
A|--------------------------------------0-----------------------------------------------------------------------
E|--0-----------------------------------------------------------------------------------------------------------
 
E|-----------0--------0--------12)---------------12)---------12)---(7)------------12)---------12)---(7)------
B|--------0-----0--------9-----12)------------12)---12)------12)---(7)---------12)---12)------12)---(7)------
E|-----0-----------0--------0--12)---------12)---------12)---12)---(7)------12)---------12)---12)---(7)------
C|-----------------------------------------------------------------------------------------------------------
A|--0--------------------------------------------------------------------12)---------------------------------
E|--------------------------------------12)------------------------------------------------------------------

E|-----------12)---------12)---(7)---------------------12)---------------(7)---(5)------0-----------------
B|--------12)---12)------12)---(7)---------------12)---------12)---------(7)---(5)------0-----------------
E|-----12)---------12)---12)---(7)---------12)---------------------12)---(7)---(5)------------------------
C|--12)---------------------------------------------------------------------------------------------------
A|-----------------------------------12)------------------------------------------------------------------
E|--------------------------------------------------------------------------------------0-----------------

tabs and chords, guitar tabs, music transcription, music technology, deep learning, music information retrieval, transcribe into tabs & chords, chordify, music renditions, songsterr, reverbnation, tabulature, bollywood chords, ultimate guitar, yousician, guitar lessons, acoustic guitar, electric guitar, guitar tuner, 911 tabs