It's Not A Fashion Statement, It's A Deathwish - My Chemical Romance - Guitar Tabs

Ray Toro
    
                                                                                                                                                                                                                                                                                                                                                                                                                                                                                                                                                                                                                                                                                                                                                                                                                                                                                                                                                                                                                                                                                                                                                                                              
E|-------------------------------------|-----------------------------------|
B|-------------------------------------|-----------------------------------|
G|---7/x--7--7--x--7--x--7--x--7--7----|7--x--7--7--x--9--x--10-x--9--7----|
D|---0/x--0--0--x--0--x--0--x--0--0----|0--x--0--0--x--0--x--0--x--0--0----|
A|---5/x--5--5--x--5--x--5--x--5--5----|---x--------x-----x-----x----------|
E|-------------------------------------|5-----5--5-----5--x--5-----5--5----|

    
                                                                                                                                                                                                                                                                                                                                                                                                                                                                                                                                                                                                                                                                                                                                                                                                                                                                                                                                                                                                                                                                                                                                                                                              
E|-------------------------------------|-----------------------------------|
B|-------------------------------------|-----------------------------------|
G|--9--x--9--9--x--11----11-x--11-11---|5--x--5--7--x--8-----7--x--5--5----|
D|--------------x-----x-----x----------|------------x-----x-----x----------|
A|--7--x--7--7--x--7--x--7--x--7--7----|3--x--3--3--x--3--x--3--x--3--3----|
E|-------------------------------------|-----------------------------------|

    
                                                                                                                                                                                                                                                                                                                                                                                                                                                                                                                                                                                                                                                                                                                                                                                                                                                                                                                                                                                                                                                                                                                                                                                              
E|-------------------------------------|-----------------------------------|
B|-------------------------------------|-----------------------------------|
G|--7--x--7--7--x--7--x--7--x--7--7----|7--x--7--7--x--9--x--10-x--9--7----|
D|--0--x--0--0--x--0--x--0--x--0--0----|0--x--0--0--x--0--x--0--x--0--0----|
A|--5--x--5--5--x--5--x--5--x--5--5----|---x--------x-----x-----x----------|
E|-------------------------------------|5-----5--5-----5--x--5-----5--5----|

    
                                                                                                                                                                                                                                                                                                                                                                                                                                                                                                                                                                                                                                                                                                                                                                                                                                                                                                                                                                                                                                                                                                                                                                                              
E|-------------------------------------|--------------------------------------------|
B|-------------------------------------|--------------------------------------------|
G|--9--x--9--9--x--11----11-x--11-11---|5-------------------------------------------|
D|--------------x-----x-----x----------|5--5--5--5--5--5--5--5--5--5--5--5--5--5--5-|
A|--7--x--7--7--x--7--x--7--x--7--7----|3--3--3--3--3--3--3--3--3--3--3--3--3--3--3-|
E|-------------------------------------|--------------------------------------------|

    
                                                                                                                                                                                                                                                                                                                                                                                                                                                                                                                                                                                                                                                                                                                                                                                                                                                                                                                                                                                                                                                                                                                                                                                              
E|-------------------------------------------------|-----------------------------------------------|
B|-------------------------------------------------|-----------------------------------------------|
G|--7--7--7--7--7--7--7--7--7--7--7--7--9--9--10-10|9--9--9--9--9--9--9--9--9--9--9--9--11-11-12-12|
D|-------------------------------------------------|-----------------------------------------------|
A|--5--5--5--5--5--5--5--5--5--5--5--5--5--5--5--5-|7--7--7--7--7--7--7--7--7--7--7--7--7--7--7--7-|
E|-------------------------------------------------|-----------------------------------------------|

    
                                                                                                                                                                                                                                                                                                                                                                                                                                                                                                                                                                                                                                                                                                                                                                                                                                                                                                                                                                                                                                                                                                                                                                                              
E|-------------------------------------------------|-----------------------------------------------|
B|-------------------------------------------------|-----------------------------------------------|
G|--11-11-11-11-11-11-11-11-11-11-11-11-11-11-11-11|9--9--9--9--9--9--9--9--9--9--9--9--9--9--9--9-|
D|-------------------------------------------------|-----------------------------------------------|
A|--9--9--9--9--9--9--9--9--9--9--9--9--9--9--9--9-|7--7--7--7--7--7--7--7--7--7--7--7--7--7--7--7-|
E|-------------------------------------------------|-----------------------------------------------|

    
                                                                                                                                                                                                                                                                                                                                                                                                                                                                                                                                                                                                                                                                                                                                                                                                                                                                                                                                                                                                                                                                                                                                                                                              
E|-------------------------------------|-----------------------------------|
B|-------------------------------------|-----------------------------------|
G|--7--x--7--7--x--7--x--7--x--7--7----|7--x--7--7--x--7--x--7--x--7--7----|
D|--0--x--0--0--x--0--x--0--x--0--0----|0--x--0--0--x--0--x--0--x--0--0----|
A|--5--x--5--5--x--5--x--5--x--5--5----|5--x--5--5--x--5--x--5--x--5--5----|
E|-------------------------------------|-----------------------------------|

    
                                                                                                                                                                                                                                                                                                                                                                                                                                                                                                                                                                                                                                                                                                                                                                                                                                                                                                                                                                                                                                                                                                                                                                                              
E|----------------------------------------------|--------------------------------------------|
B|----------------------------------------------|--------------------------------------------|
G|--7--7--7--7--7--7--7--7--7--7--7--7--7--7--7-|--------------------------------------------|
D|--7--7--7--7--7--7--7--7--7--7--7--7--7--7--7-|7--7--7--7--7--7--7--7--7--7--7--7--7--7--7-|
A|--5--5--5--5--5--5--5--5--5--5--5--5--5--5--5-|7--7--7--7--7--7--7--7--7--7--7--7--7--7--7-|
E|----------------------------------------------|5--5--5--5--5--5--5--5--5--5--5--5--5--5--5-|

    
                                                                                                                                                                                                                                                                                                                                                                                                                                                                                                                                                                                                                                                                                                                                                                                                                                                                                                                                                                                                                                                                                                                                                                                              
E|----------------------------------------------|-----------------------------------------|
B|----------------------------------------------|-----------------------------------------|
G|--9--9--9--9--9--9--9--9--9--9--9--9--9--9--9-|5-----5--5-----5--5--5--5--5--5--5--5--5-|
D|--9--9--9--9--9--9--9--9--9--9--9--9--9--9--9-|5--x--5--5--x--5--5--5--5--5--5--5--5--5-|
A|--7--7--7--7--7--7--7--7--7--7--7--7--7--7--7-|3--x--3--3--x--3--3--3--3--3--3--3--3--3-|
E|----------------------------------------------|-----------------------------------------|

    
                                                                                                                                                                                                                                                                                                                                                                                                                                                                                                                                                                                                                                                                                                                                                                                                                                                                                                                                                                                                                                                                                                                                                                                              
E|----------------------------------------------|--------------------------------------------|
B|----------------------------------------------|--------------------------------------------|
G|--7--7--7--7--7--7--7--7--7--7--7--7--7--7--7-|--------------------------------------------|
D|--7--7--7--7--7--7--7--7--7--7--7--7--7--7--7-|7--7--7--7--7--7--7--7--7--7--7--7--7--7--7-|
A|--5--5--5--5--5--5--5--5--5--5--5--5--5--5--5-|7--7--7--7--7--7--7--7--7--7--7--7--7--7--7-|
E|----------------------------------------------|5--5--5--5--5--5--5--5--5--5--5--5--5--5--5-|

    
                                                                                                                                                                                                                                                                                                                                                                                                                                                                                                                                                                                                                                                                                                                                                                                                                                                                                                                                                                                                                                                                                                                                                                                              
E|----------------------------------------------|-----------------------------------------|
B|----------------------------------------------|-----------------------------------------|
G|--9--9--9--9--9--9--9--9--9--9--9--9--9--9--9-|5-----5--5-----5--5--5--5--5--5--5--5--5-|
D|--9--9--9--9--9--9--9--9--9--9--9--9--9--9--9-|5--x--5--5--x--5--5--5--5--5--5--5--5--5-|
A|--7--7--7--7--7--7--7--7--7--7--7--7--7--7--7-|3--x--3--3--x--3--3--3--3--3--3--3--3--3-|
E|----------------------------------------------|-----------------------------------------|

    
                                                                                                                                                                                                                                                                                                                                                                                                                                                                                                                                                                                                                                                                                                                                                                                                                                                                                                                                                                                                                                                                                                                                                                                              
E|-------------------------------------------------|-----------------------------------------------|
B|-------------------------------------------------|-----------------------------------------------|
G|-------------------------------------------------|-----------------------------------------------|
D|--5--5--5--5--5--5--5--5--5--5--5--5--5--5--5--5-|2--2--2--2--2--2--2--2--2--2--2--2--2--2--2--2-|
A|--5--5--5--5--5--5--5--5--5--5--5--5--5--5--5--5-|2--2--2--2--2--2--2--2--2--2--2--2--2--2--2--2-|
E|--3--3--3--3--3--3--3--3--3--3--3--3--3--3--3--3-|0--0--0--0--0--0--0--0--0--0--0--0--0--0--0--0-|

    
                                                                                                                                                                                                                                                                                                                                                                                                                                                                                                                                                                                                                                                                                                                                                                                                                                                                                                                                                                                                                                                                                                                                                                                              
E|-------------------------------------------------|-----------------------------------------------|
B|-------------------------------------------------|-----------------------------------------------|
G|-------------------------------------------------|-----------------------------------------------|
D|--7--7--7--7--7--7--7--7--7--7--7--7--7--7--7--7-|5--5--5--5--5--5--5--5--5--5--5--5--5--5--5--5-|
A|--7--7--7--7--7--7--7--7--7--7--7--7--7--7--7--7-|5--5--5--5--5--5--5--5--5--5--5--5--5--5--5--5-|
E|--5--5--5--5--5--5--5--5--5--5--5--5--5--5--5--5-|3--3--3--3--3--3--3--3--3--3--3--3--3--3--3--3-|

    
                                                                                                                                                                                                                                                                                                                                                                                                                                                                                                                                                                                                                                                                                                                                                                                                                                                                                                                                                                                                                                                                                                                                                                                              
E|-------------------------------------------------|-----------------------------------------------|
B|-------------------------------------------------|-----------------------------------------------|
G|--7--7--7--7--7--7--7--7--7--7--7--7--7--7--7--7-|9--9--9--9--9--9--9--9--9--9--9--9--9--9--9--9-|
D|-------------------------------------------------|-----------------------------------------------|
A|--5--5--5--5--5--5--5--5--5--5--5--5--5--5--5--5-|7--7--7--7--7--7--7--7--7--7--7--7--7--7--7--7-|
E|-------------------------------------------------|-----------------------------------------------|

    
                                                                                                                                                                                                                                                                                                                                                                                                                                                                                                                                                                                                                                                                                                                                                                                                                                                                                                                                                                                                                                                                                                                                                                                              
E|-------------------------------------------------|--------------------------------|
B|-------------------------------------------------|--------------------------------|
G|-------------------------------------------------|--------------------------------|
D|--7--7--7--7--7--7--7--7--7--7--7--7--7--7--7--7-|5-----4-----5-----7-----5-------|
A|--7--7--7--7--7--7--7--7--7--7--7--7--7--7--7--7-|5-----4-----5-----7-----5-------|
E|--5--5--5--5--5--5--5--5--5--5--5--5--5--5--5--5-|3-----2-----3-----5-----3-------|

    
                                                                                                                                                                                                                                                                                                                                                                                                                                                                                                                                                                                                 
E|----------------------------------------------------------------------|
B|----------------------------------------------------------------------|
G|-----------24-23-22-21-20-19-18-17-16-15-14-13-12-11-10-9--8--7--6--5-|
D|----------------------------------------------------------------------|
A|-----------21-20-19-18-17-16-15-14-13-12-11-10-9--8--7--6--5--4--3--2-|
E|----------------------------------------------------------------------|

    
                                                                                                                                                                                                                                                                                                                                                                                                                                                                                                                                                                                                                                                                                                                                                                                                                                                                                                                                                                                                                                                                                                                                                                                              
E|----------------------------------------------|--------------------------------------------|
B|----------------------------------------------|--------------------------------------------|
G|--7--7--7--7--7--7--7--7--7--7--7--7--7--7--7-|--------------------------------------------|
D|--7--7--7--7--7--7--7--7--7--7--7--7--7--7--7-|7--7--7--7--7--7--7--7--7--7--7--7--7--7--7-|
A|--5--5--5--5--5--5--5--5--5--5--5--5--5--5--5-|7--7--7--7--7--7--7--7--7--7--7--7--7--7--7-|
E|----------------------------------------------|5--5--5--5--5--5--5--5--5--5--5--5--5--5--5-|

    
                                                                                                                                                                                                                                                                                                                                                                                                                                                                                                                                                                                                                                                                                                                                                                                                                                                                                                                                                                                                                                                                                                                                                                                              
E|----------------------------------------------|-----------------------------------------|
B|----------------------------------------------|-----------------------------------------|
G|--9--9--9--9--9--9--9--9--9--9--9--9--9--9--9-|5-----5--5-----5--5--5--5--5--5--5--5--5-|
D|--9--9--9--9--9--9--9--9--9--9--9--9--9--9--9-|5--x--5--5--x--5--5--5--5--5--5--5--5--5-|
A|--7--7--7--7--7--7--7--7--7--7--7--7--7--7--7-|3--x--3--3--x--3--3--3--3--3--3--3--3--3-|
E|----------------------------------------------|-----------------------------------------|

    
                                                                                                                                                                                                                                                                                                                                                                                                                                                                                                                                                                                                                                                                                                                                                                                                                                                                                                                                                                                                                                                                                                                                                                                              
E|----------------------------------------------|--------------------------------------------|
B|----------------------------------------------|--------------------------------------------|
G|--7--7--7--7--7--7--7--7--7--7--7--7--7--7--7-|--------------------------------------------|
D|--7--7--7--7--7--7--7--7--7--7--7--7--7--7--7-|7--7--7--7--7--7--7--7--7--7--7--7--7--7--7-|
A|--5--5--5--5--5--5--5--5--5--5--5--5--5--5--5-|7--7--7--7--7--7--7--7--7--7--7--7--7--7--7-|
E|----------------------------------------------|5--5--5--5--5--5--5--5--5--5--5--5--5--5--5-|

    
                                                                                                                                                                                                                                                                                                                                                                                                                                                                                                                                                                                                                                                                                                                                                                                                                                                                                                                                                                                                                                                                                                                                                                                              
E|----------------------------------------------|-----------------------------------|
B|----------------------------------------------|-----------------------------------|
G|--9--9--9--9--9--9--9--9--9--9--9--9--9--9--9-|7--x--7--7--x--7--x--7--x--7--7----|
D|--9--9--9--9--9--9--9--9--9--9--9--9--9--9--9-|0--x--0--0--x--0--x--0--x--0--0----|
A|--7--7--7--7--7--7--7--7--7--7--7--7--7--7--7-|5--x--5--5--x--5--x--5--x--5--5----|
E|----------------------------------------------|-----------------------------------|

    
                                                                                                                                                                                                                                                                                                                                                                                                                                                                                                                                                                                                                                                                                                                                                                                                                                                                                                                                                                                                                                                                                                                                                                                              
E|-------------------------------------|--------------------------------------------|
B|-------------------------------------|--------------------------------------------|
G|--7--x--7--7--x--7--x--7--x--7--7----|7--7--7--7--7--7--7--7--7--7--7--7--7--7--7-|
D|--0--x--0--0--x--0--x--0--x--0--0----|7--7--7--7--7--7--7--7--7--7--7--7--7--7--7-|
A|--5--x--5--5--x--5--x--5--x--5--5----|5--5--5--5--5--5--5--5--5--5--5--5--5--5--5-|
E|-------------------------------------|--------------------------------------------|

    
                                                                                                                                                                                                                                                                                                                                                                                                                                                                                                                                                                                                                                                                                                                                                                                                                                                                                                                                                                                                                                                                                                                                                                                              
E|----------------------------------------------|--------------------------------------------|
B|----------------------------------------------|--------------------------------------------|
G|----------------------------------------------|9--9--9--9--9--9--9--9--9--9--9--9--9--9--9-|
D|--7--7--7--7--7--7--7--7--7--7--7--7--7--7--7-|9--9--9--9--9--9--9--9--9--9--9--9--9--9--9-|
A|--7--7--7--7--7--7--7--7--7--7--7--7--7--7--7-|7--7--7--7--7--7--7--7--7--7--7--7--7--7--7-|
E|--5--5--5--5--5--5--5--5--5--5--5--5--5--5--5-|--------------------------------------------|

    
                                                                                                                                                                                                                                                                                                                                                                                                                                                                                                                                                                                                                                                                                                                                                                                                                                                                                                                                                                                                                                                                                                                                                                                              
E|-------------------------------------------|--------------------------------------------|
B|-------------------------------------------|--------------------------------------------|
G|--5-----5--5-----5--5--5--5--5--5--5--5--5-|7--7--7--7--7--7--7--7--7--7--7--7--7--7--7-|
D|--5--x--5--5--x--5--5--5--5--5--5--5--5--5-|7--7--7--7--7--7--7--7--7--7--7--7--7--7--7-|
A|--3--x--3--3--x--3--3--3--3--3--3--3--3--3-|5--5--5--5--5--5--5--5--5--5--5--5--5--5--5-|
E|-------------------------------------------|--------------------------------------------|

    
                                                                                                                                                                                                                                                                                                                                                                                                                                                                                                                                                                                                                                                                                                                                                                                                                                                                                                                                                                                                                                                                                                                                                                                              
E|----------------------------------------------|--------------------------------------------|
B|----------------------------------------------|--------------------------------------------|
G|----------------------------------------------|9--9--9--9--9--9--9--9--9--9--9--9--9--9--9-|
D|--7--7--7--7--7--7--7--7--7--7--7--7--7--7--7-|9--9--9--9--9--9--9--9--9--9--9--9--9--9--9-|
A|--7--7--7--7--7--7--7--7--7--7--7--7--7--7--7-|7--7--7--7--7--7--7--7--7--7--7--7--7--7--7-|
E|--5--5--5--5--5--5--5--5--5--5--5--5--5--5--5-|--------------------------------------------|

    
                                                                                                                                                                                                                                                                                                                                                                                                                                                                                                                                                                                                                                                                                                                                                                                                                                                                                                                                                                                                                                                                                                                                                                                              
E|-------------------------|-----------------------|
B|-------------------------|-----------------------|
G|--7--7--7--7--7--7--7--7-|-----------------------|
D|--7--7--7--7--7--7--7--7-|7--7--7--7--7--7--7--7-|
A|--5--5--5--5--5--5--5--5-|7--7--7--7--7--7--7--7-|
E|-------------------------|5--5--5--5--5--5--5--5-|

    
                                                                                                                                                                                                                                                                                                                                                                                                                                                                                                                                                                                                                                                                                                                                                                                                                                                                                                                                                                                                                                                                                                                                                                                              
E|----------------------------------------------|--------------------------------------------|
B|----------------------------------------------|--------------------------------------------|
G|--7--7--7--7--7--7--7--7--7--7--7--7--7--7--7-|9--9--9--9--9--9--9--9--9--9--9--9--9--9--9-|
D|----------------------------------------------|--------------------------------------------|
A|--5--5--5--5--5--5--5--5--5--5--5--5--5--5--5-|7--7--7--7--7--7--7--7--7--7--7--7--7--7--7-|
E|----------------------------------------------|--------------------------------------------|

    
                                                                                                                                                                                                                                                                                                                                                                                                                                                                                                                                                                                                                                                                                                                                                                                                                                                                                                                                                                                                                                                                                                                                                                                              
E|----------------------------|--------------------------------|
B|----------------------------|--------------------------------|
G|--5--x--5--5----------------|--------------------------------|
D|--5--x--5--5----------------|5-----4-----5-----7-----5-------|
A|--3--x--3--3----------------|5-----4-----5-----7-----5-------|
E|----------------------------|3-----2-----3-----5-----3-------|

    
                                                                                                                                                                                                                                                                                                                                                                                                                                                                                                                                                                                                                                                                                                                                                                                                                                                                                                                                                                                                                                                                                                                                                                                              
E|-------------------------|-----------------------|
B|-------------------------|-----------------------|
G|--7--------7--------7----|-----------------------|
D|-----7--------7--------7-|7--------7--------7----|
A|--------5--------5-------|---7--------7--------7-|
E|-------------------------|------5--------5-------|

    
                                                                                                                                                                                                                                                                                                                                                                                                                                                                                                                                                                                                                                                                                                                                                                                                                                                                                                                                                                                                                                                                                                                                                                                              
E|-------------------------|-----------------------|
B|-------------------------|-----------------------|
G|--9--------9--------9----|7--------7--------7----|
D|-----9--------9--------9-|---7--------7--------7-|
A|--------7--------7-------|------5--------5-------|
E|-------------------------|-----------------------|

About Three Cheers for Sweet Revenge : My Chemical Romance released June 8, 2004 by Reprise Records . It was the band's final release to feature drummer Matt Pelissier, who would later be replaced by Bob Bryar . The record produced several radio singles and MTV videos . It was certified platinum less than a year after its release . The record has sold over three million copies in the United States . Musically, "Three Cheers for Sweet Revenge" has been described as alternative rock, emo, pop punk, post-hardcore, and punk rock . I Brought You My Bullets, You Brought Me Your Love was considered "a particularly strident entry" It had a contribution from notable artists like Matt Pelissier,Bob Bryar. It had an affiliation to bands - Three Cheers for Sweet Revenge,My Chemical Romance. Its music is influenced by genres - alternative rock emo pop punk post-hardcore punk rock.

tabs and chords, guitar tabs, music transcription, music technology, deep learning, music information retrieval, transcribe into tabs & chords, chordify, music renditions, songsterr, reverbnation, tabulature, bollywood chords, ultimate guitar, yousician, guitar lessons, acoustic guitar, electric guitar, guitar tuner, 911 tabs