Guitar Tabs for Ishq bulawa

Tabs for Song : Ishq Bulava

ishq bulava
E|--0--0-----------------
B|--------3---3\5--5-----
G|-----------------------
D|-----------------------
A|-----------------------
E|-----------------------

jaane kab aave
E|-----3---3h5-----1--0-----------
B|--5--------------------3--3-----
G|--------------------------------
D|--------------------------------
A|--------------------------------
E|--------------------------------

ishq bulava
E|--0--0-----------------
B|--------3---3\5--5-----
G|-----------------------
D|-----------------------
A|-----------------------
E|-----------------------

aave jab aave
E|-----3---3h5-----0-----------------------
B|--5-----------------3--0-----3---3\5-----
G|-----------------------------------------
D|-----------------------------------------
A|-----------------------------------------
E|-----------------------------------------

mein ta kol tere rahna
E|--------------------------------------
B|--0--1--0-----------------------1-----
G|-----------2-----2--2-----2--2--------
D|--------------------------------------
A|--------------------------------------
E|--------------------------------------

mein ta kol tere rahna
E|-----------------------0--------------
B|-----0--------------0-----3--3--3-----
G|--2-----0-----0--2--------------------
D|--------------------------------------
A|--------------------------------------
E|--------------------------------------

mein ta.. baitha ..kol tere..ee
E|--------------------------------0--------------
B|--------------0-----0--------0-----3---3\5-----
G|-----2-----------------2--2--------------------
D|--2--------2-----------------------------------
A|-----------------------------------------------
E|-----------------------------------------------

tenu taqda ravaan
E|-----------0-----------
B|--0-----0-----0-----0--
G|-----2-----------2-----
D|-----------------------
A|-----------------------
E|-----------------------

baton pe teri mein hasda ravaan
E|--------------------------------------
B|--0--1--3---3\5--0--3-----------------
G|--------------------------2--0--2-----
D|--------------------------------------
A|--------------------------------------
E|--------------------------------------

pagal mein khud ko banaanda ravaan
E|--------0--------------------0--------------
B|--------------3--1--0-----0-----0-----0-----
G|--2--2-----------------2-----------2--------
D|--------------------------------------------
A|--------------------------------------------
E|--------------------------------------------

tu hasdi ravein,mein hasanda ravaan
E|--------0-----------------------------------
B|--0--0-----3--1--0-----------3--------------
G|-----------------------2--2-----2--0--2-----
D|--------------------------------------------
A|--------------------------------------------
E|--------------------------------------------

tenu taqda ravaan
E|--------------------------
B|--------------------------
G|--2--0--------2--0--0-----
D|--------2--2--------------
A|--------------------------
E|--------------------------


tabs and chords, guitar tabs, music transcription, music technology, deep learning, music information retrieval, transcribe into tabs & chords, chordify, music renditions, songsterr, reverbnation, tabulature, bollywood chords, ultimate guitar, yousician, guitar lessons, acoustic guitar, electric guitar, guitar tuner, 911 tabs