Guitar Tabs for Ishq Ka Hafiz

(/) Slide Up  (\) Slide Down  (h) Hammer On  (p) Pull Off  (b) Bend (r) Release (v) Vibrato (x) Muted

Tabs & Chords
BPM : 93.0
Check Track 2 for Chord Positions 

          Cm                      Gm                A#                                        
E|--------------------------------------------------------------------------------------------
B|--------------------------------------------------------------------------------------------
G|-----------------------------------------------------------0--------------------------------
D|--------------------------------------------------------------------------------------------
A|--15-15-17-17-17-18-18-17-17-17----------15-15-17-17----------------------------------15-17-
E|--------------------------------18-18-18-------------18----------13-18-18-18-18-17-18-------

                            G              Cm             D# F                    A#          
E|--------------------------------------------17-15-------------------------------------------
B|--------------------------------------------------18----18-18----------16----18-15----18-18-
G|-----------0--0--0--0-----------------------------------------17-17-------17----------------
D|--------------------------------------------------------------------------------------------
A|--17----------------------15-15-15-15-17-17-------------------------------------------------
E|-----18-------------------------------------------------------------------------------------

                                        Cm                            C                 Cm    
E|--------------------------------------------------------------------------------------------
B|--18----18-18-------------------------------------------------------------------------------
G|--------------17----------------0--0--0--0--0-----0--0--------------0-----------------------
D|--------------------------17----------------------------------------------------------------
A|-----------------17-17-17-------------------------------15-15-15-15----15-17----15----15-17-
E|-----------------------------16----------------------------------------------18-------------

                                                    
E|--------------------------------------------------
B|--------------------------------------------------
G|--------------------15----------------------------
D|-----------------15----17----------15-15-15-------
A|-----17-15-15-17----------18-18-18----------17-17-
E|--------------------------------------------------

Guitar Tabs for Ishq Ka Hafiz






          Cm                      Gm                A#                                        
E|--------3-----------------------3-----------------1-----------------------------------------
B|--------4-----------------------3-----------------3-----------------------------------------
G|--------5-----------------------3-----------------3-----------------------------------------
D|--------5-----------------------5-----------------3-----------------------------------------
A|--------3-----------------------5-----------------1-----------------------------------------
E|--------------------------------3-----------------------------------------------------------

                            G              Cm             D# F                    A#          
E|--------------------------3--------------3--------------6--1--------------------1-----------
B|--------------------------3--------------4--------------8--1--------------------3-----------
G|--------------------------4--------------5--------------8--2--------------------3-----------
D|--------------------------5--------------5--------------8--3--------------------3-----------
A|--------------------------5--------------3--------------6--3--------------------1-----------
E|--------------------------3--------------------------------1--------------------------------

                                        Cm                            C                 Cm    
E|--------------------------------------3-----------------------------0-----------------3-----
B|--------------------------------------4-----------------------------1-----------------4-----
G|--------------------------------------5-----------------------------0-----------------5-----
D|--------------------------------------5-----------------------------2-----------------5-----
A|--------------------------------------3-----------------------------3-----------------3-----
E|--------------------------------------------------------------------------------------------

                                                    
E|--------------------------------------------------
B|--------------------------------------------------
G|--------------------------------------------------
D|--------------------------------------------------
A|--------------------------------------------------
E|--------------------------------------------------

tabs and chords, guitar tabs, music transcription, music technology, deep learning, music information retrieval, transcribe into tabs & chords, chordify, music renditions, songsterr, reverbnation, tabulature, bollywood chords, ultimate guitar, yousician, guitar lessons, acoustic guitar, electric guitar, guitar tuner, 911 tabs