Guitar Tabs for Intro Lampion

(/) Slide Up  (\) Slide Down  (h) Hammer On  (p) Pull Off  (b) Bend (r) Release (v) Vibrato (x) Muted

Tabs for Song : 

Song lyrics here
E|--------------------------0-----------------------------------------------0-----------------
B|---0/1-----------1---------------------0/1---------0/1-----------1---------------------0/1--
G|-----------2-----------2-----------------------------------2-----------2--------------------
D|--------------------------------------------------------------------------------------------
A|---0/----------------------------------------------0/---------------------------------------
E|--------------------------------------------------------------------------------------------

E|--------------------------------0--------------------------------------------------------------
B|---------0/1-----------1---------------------0/1--------0--------------0--------3-----------0--
G|-----------------2-----------2-----------------------------------1-----------1-----------------
D|---------3/------------------------------------------------------------------------------------
A|-----------------------------------------------------------------------------------------------
E|--------------------------------------------------------0--------------------------------------

Song lyrics here
E|--
B|--
G|--
D|--
A|--
E|--

Paste any tab in acousterr's tab maker and we'll play it !!!
Now supports capo and sound effects for vibrato/pull-off/hammer/bends/mutes etc !!! Checkout help section
tabs and chords, guitar tabs, music transcription, music technology, deep learning, music information retrieval, transcribe into tabs & chords, chordify, music renditions, songsterr, reverbnation, tabulature, bollywood chords, ultimate guitar, yousician, guitar lessons, acoustic guitar, electric guitar, guitar tuner, 911 tabs