Guitar Tabs for O Meri Laila - Guitar Tabs - Musical G - Laila Majnu

(/) Slide Up  (\) Slide Down  (h) Hammer On  (p) Pull Off  (b) Bend (r) Release (v) Vibrato (x) Muted

Tabs for Song : O meri Laila
BPM : 200

Song lyrics here
E|--------------------------------------------------------------------------------------------
B|--------------------4--4-----2-----4--2-----------------------------4--4-----2------4/2-----
G|--------0-----3-----------------------------3--1-----------0--3--------------------------3--
D|--1--------------------------------------------------1--------------------------------------
A|--------------------------------------------------------------------------------------------
E|--------------------------------------------------------------------------------------------

Song Patta Anaaro Ka Patta Chanaaro Ka Jese Hawaao Mein
E|--------------------------------------------------------------------------------------------------------
B|---------1/4--4------3/6------4/3--1------------1/4---4/1---1h2-----------------------------------------
G|--3--------------------------------------3--------------------------3--1------5/3--3--------------------
D|---------------------------------------------------------------------------------------5/3------3/5--5--
A|--------------------------------------------------------------------------------------------6-----------
E|--------------------------------------------------------------------------------------------------------

E|--------------------------------------------------------------
B|-----------4--4--2---4/2--------------------4--4--2---4/2-----
G|-----0--3-----------------3--1--------0--3-----------------3--
D|--1--------------------------------1--------------------------
A|--------------------------------------------------------------
E|--------------------------------------------------------------

E|--------------------------------------------------------------------------------------------------
B|--------------------------------------------------------------------------------------------------
G|------3/5-----5---5/8---6/5--3---------3/5--5---5/8---6/5--3-----3---5/8---5/8--10-----7h8--5-----
D|--6--------------------------------6-----------------------------------------------------------8--
A|--------------------------------------------------------------------------------------------------
E|--------------------------------------------------------------------------------------------------

E|--------------------------------------------------------------------------------------------------------
B|--------------------------------------------------------------------------------------------------------
G|------------3/5--5------5/8---6/5--3---------------3/5--5------5/8------6/5--3-----3--5--7-----5--7-----
D|-----6--------------------------------------6--6--------------------------------------------------------
A|--------------------------------------------------------------------------------------------------------
E|--------------------------------------------------------------------------------------------------------

E|--4--3--3--3-----------------------------4--3--3--3-----------------------
B|--------------4--4--4--------------------------------4--4--4--------------
G|-----------------------5--5--5--3-----------------------------5--5--5--6--
D|--------------------------------------------------------------------------
A|--------------------------------------------------------------------------
E|--------------------------------------------------------------------------

E|-----------------------------------------------------
B|--------6--6--6--6--6--6--4--4--4--------------------
G|-----6-----------------------------5------5h6-----3--
D|-----------------------------------------------------
A|-----------------------------------------------------
E|-----------------------------------------------------

E|--4--3--3--3-----------------------------4--3--3--3-----------------------------
B|--------------4--4--4--------------------------------4--4--4--------------------
G|-----------------------5--5--5--3-----------------------------5--5--5--6--------
D|--------------------------------------------------------------------------------
A|--------------------------------------------------------------------------------
E|--------------------------------------------------------------------------------

E|-----------------------4--4--4--3-----------------------------
B|--------6--6--6--6--6---------------6/4------4/6------6/4-----
G|-----6--------------------------------------------------------
D|--------------------------------------------------------------
A|--------------------------------------------------------------
E|--------------------------------------------------------------

E|-----------------------------------------------------------------------------------
B|-----4--4--6------6/8------6/8------6/8------6/-8/9------9/4-----4-----------------
G|--------------------------------------------------------------------5-----5--6-----
D|-----------------------------------------------------------------------------------
A|-----------------------------------------------------------------------------------
E|-----------------------------------------------------------------------------------

E|--------------------------------------------------------
B|--------6--6--6--6--6--6--4--4--4-----------------------
G|-----6--------------------------------5------5h6-----3--
D|--------------------------------------------------------
A|--------------------------------------------------------
E|--------------------------------------------------------

E|-----------------------------------------------------------------------
B|-----4--4--6------6/8---6/8------6/8---6/-8/9------9/4-----------------
G|--------------------------------------------------------5--5--6--------
D|-----------------------------------------------------------------------
A|-----------------------------------------------------------------------
E|-----------------------------------------------------------------------

E|-----------------------4--4--4--3--------------------------------
B|--------6--6--6--6--6---------------6/4------4/6------6/4--------
G|-----6-----------------------------------------------------------
D|-----------------------------------------------------------------
A|-----------------------------------------------------------------
E|-----------------------------------------------------------------

E|-----------------------------------------------------------------------------------
B|-----------------------------------------------------------------------------------
G|--0-----------------------------------------0--------------------------------------
D|-----1-----1-----------------------------------1--1--------------------------------
A|--------------4--4---3h4-----4--3--1-----------------4--4---3h4-----4--3--1--------
E|-----------------------------------------------------------------------------------
 
E|-----------------------------------------------------------------
B|-----------------------------------------------------------------
G|-----------------------------------------------------------------
D|-----------1-----3-----3------1/3--------------1-----------------
A|-----4-----------------------------------4--------------1--------
E|-----------------------------------------------------------------

E|--------------------------------------------------
B|--------------------------------------------------
G|-----0--------------------------------------------
D|-----------1-----1-----------1--------------------
A|--------------------4-----4--------4--3-----1-----
E|--------------------------------------------------

E|--------------------------------------------------------------------------------------------
B|--------------------------------------------------------------------------------------------
G|-----0--------------------------------------------------------------------------------------
D|-----------1-----1-----------1-----------------------------1--3--3------1h3-----------1-----
A|--------------------4-----4--------4--3-----1--------4--------------------------4-----------
E|--------------------------------------------------------------------------------------------

E|-----------------11-------------------------11-------10-10-11-10----10-9--10-9--------------------------
B|-----11----13-------------11----11----13-------------------------------------------11--9/8-----9--11----
G|--------------------------------------------------------------------------------------------------------
D|--------------------------------------------------------------------------------------------------------
A|--------------------------------------------------------------------------------------------------------
E|--------------------------------------------------------------------------------------------------------

E|-----------------11-------------------13----11----13/11-------11-10-11-10----10-9--10-9--------------------------
B|-----11----13-------------11----11----------------------------------------------------------11-11-9--8--9-----11-
G|-----------------------------------------------------------------------------------------------------------------
D|-----------------------------------------------------------------------------------------------------------------
A|-----------------------------------------------------------------------------------------------------------------
E|-----------------------------------------------------------------------------------------------------------------
 
E|--------------------------------------------------------------------------------
B|--------------------------------------------------------------------------------
G|------------------3/5-----5-----5--5------6/5---6/5------3h5--------------3-----
D|--------5--6---------------------------------------------------6/5-----6--------
A|--------------------------------------------------------------------------------
E|--------------------------------------------------------------------------------

E|-----------------------------------------------------------------------------------
B|--------------------------------------4---6/4-----4--------------------------------
G|------------------3/5-----5-----5--5---------------------3h5-----------------3-----
D|--------5--6---------------------------------------------------6/5-----6-----------
A|-----------------------------------------------------------------------------------
E|-----------------------------------------------------------------------------------

E|-----------------------------------------------------------------------------------------------------------
B|--------4--3------------------2/3------------1/2-----2------4/6-----4---------------------2/4-----4---4/9--
G|-----3------------------------------------------------------------------5/-3/1-----1-----------------------
D|--------------------3-----------------3--------------------------------------------------------------------
A|-----------------------------------------------------------------------------------------------------------
E|-----------------------------------------------------------------------------------------------------------

E|--4--3--3--3-----------------------------4--3--3--3-----------------------
B|--------------4--4--4--------------------------------4--4--4--------------
G|-----------------------5--5--5--3-----------------------------5--5--5--6--
D|--------------------------------------------------------------------------
A|--------------------------------------------------------------------------
E|--------------------------------------------------------------------------

E|-----------------------------------------------------
B|--------6--6--6--6--6--6--4--4--4--------------------
G|-----6-----------------------------5------5h6--3-----
D|-----------------------------------------------------
A|-----------------------------------------------------
E|-----------------------------------------------------

E|--4--3--3--3-----------------------------4--3--3--3-----------------------------
B|--------------4--4--4--------------------------------4--4--4--------------------
G|-----------------------5--5--5--3-----------------------------5--5--5--6--------
D|--------------------------------------------------------------------------------
A|--------------------------------------------------------------------------------
E|--------------------------------------------------------------------------------

E|--------------------4--4--4--3-----------------------------
B|-----6--6--6--6--6---------------6/4------4/6------6/4-----
G|--6--------------------------------------------------------
D|-----------------------------------------------------------
A|-----------------------------------------------------------
E|-----------------------------------------------------------

E|--------------------------------------------------------------------------------------------------------------
B|-----4--4--6------6/8---6/8------6/8---6/-8/9------9/4--------------------6--6--6--6--6--6--4--4--4-----------
G|-----------------------------------------------------------5--5--6-----6-----------------------------5---5h6--
D|--------------------------------------------------------------------------------------------------------------
A|--------------------------------------------------------------------------------------------------------------
E|--------------------------------------------------------------------------------------------------------------

E|--------------------------------------------------------------------------------4--4--4--3--------------------------
B|--4--4--6------6/8---6/8------6/8---6/-8/9---9/4-----------------6--6--6--6--6---------------6/4------4/6------6/4--
G|--------------------------------------------------5--5--6-----6-----------------------------------------------------
D|--------------------------------------------------------------------------------------------------------------------
A|--------------------------------------------------------------------------------------------------------------------
E|--------------------------------------------------------------------------------------------------------------------



E|--
B|--
G|--
D|--
A|--
E|--


Paste any tab in acousterr's tab maker and we'll play it !!!
Now supports capo and sound effects for vibrato/pull-off/hammer/bends/mutes etc !!! Checkout help section
tabs and chords, guitar tabs, music transcription, music technology, deep learning, music information retrieval, transcribe into tabs & chords, chordify, music renditions, songsterr, reverbnation, tabulature, bollywood chords, ultimate guitar, yousician, guitar lessons, acoustic guitar, electric guitar, guitar tuner, 911 tabs