Bass Tabs for Individual Dream

(/) Slide Up  (\) Slide Down  (h) Hammer On  (p) Pull Off  (b) Bend (r) Release (v) Vibrato (x) Muted

Tabs for Song : 
BPM :114

Song lyrics here 
G|----
D|--------
A|--------
E|--

Song lyrics here 
G|--
D|--
A|--
E|--

???
G|--------------------------------------------------------------------------------------------------
D|--------------------------------------------------------------------------------------------------
A|--------------------------------4--5--6--6--------------------------------------------------------
E|--8--8--10-11-3--3--6--3--4--4--------------6--7--8--8--10-11-3--3--6--3--4--4--4--4--4--4--4--4--
?? ???
G|--
D|--
A|--
E|--

1?

G|--------------------------------------------------------------------------------------------------
D|--------------------------------------------------------------------------------------------------
A|--------------------------------------6--6--------------------------------------------------------
E|--8--8--------3--3--------4--4--------------4--6--8--8--------3--3--------4--4--------4--4-----6--

G|--------------------------------------------------------------------------------------------------
D|--------------------------------------------------------------------------------------------------
A|--------------------------------------6--6--------------------------------------------6-----------
E|--8--8--------3--3--------4--4--------------4--6--8--8--------3--3--------4--4-----------6--------
1???
G|--------------------------------------------------
D|-----------------------------------------4--------
A|--------------------------------------6-----6-----
E|--4--4--4--4--4--4--4--4--4--4--4--4-----------6--

G|-----------------------------------------------------------
D|-----------------------------------------------------------
A|-----------------------------------------------------------
E|--8--8--8--8-----8--8--8--8-----8--8--8--8-----8--8--8--8--

G|--------------------------------------------------
D|-----------------------------------------4--------
A|--------------------------------------6-----6-----
E|--4--4--4--4--4--4--4--4--4--4--4--4-----------6--

G|-----------------------------------------------------------
D|-----------------------------------------------------------
A|-----------------------------------------------------------
E|--8--8--8--8-----8--8--8--8-----8--8--8--8-----8--8--8--8--

G|--------------------------------------------------
D|-----------------------------------------4--6-----
A|--------------------------------------6--------6--
E|--4--4--4--4--4--4--4--4--4--4--4--4--------------

G|-----------------------------------------------------------
D|-----------------------------------------------------------
A|-----------------------------------------------------------
E|--8--8--8--8-----8--8--8--8-----8--8--8--8-----8--8--8--8--

G|--------------------------------------------------
D|-----------------------------6--4-----------------
A|-----------------------------------6--4-----------
E|--4--4--4--4--4--4--4--4--4--------------4--6--7--
?? ??
G|-----------------------------------------------------------------\-----------------
D|-----------------------------------------------------------------------------------
A|-----------------------------------------------------------------------------------
E|--8--11-0--6--6--6--10-8--11-0--6--6--6--10-8--11-0--6--6--6--10-8--11-0--6-----12-
??? ??
G|--------------------------------------------------------------------------------------------------
D|--------------------------------------------------------------------------------------------------
A|--------------------------------------6--6--8-----------------------------------------11-11-10----
E|--8--8-----8--3--3--6--3--4--4-----4-----------9--8--8-----8--3--3--6--3--4--4-----4-----------11-
2? ?? ?
G|--------------------------------------------------------------------------------------------------
D|--------------------------------------------------------------------------------------------------
A|--------------------------------------6--6--8-----------------------------------------11-11-11-11-
E|--8--8-----8--3--3--6--3--4--4-----4-----------9--8--8-----8--3--3--6--3--4--4-----4--------------

G|--------------------------------------------------------------------------------------------------
D|--------------------------------------------------------------------------------------------------
A|--------------------------------------6--6--8-----------------------------------------11-11-10-8--
E|--8--8-----8--3--3--6--3--4--4-----4-----------9--8--8-----8--3--3--6--3--4--4-----4--------------

G|--------------------------------------------------------------------------------------------------
D|--------------------------------------------------------------------------------------------------
A|--------------------------------------6--6--8--------------------------------------------6--------
E|--8--8-----8--3--3--6--3--4--4-----4-----------9--8--8-----8--3--3--6--3--4--4-----4-----------6--
 2? ??
G|--------------------------------------------------
D|--------------------------------6--6--4--4--------
A|--------------------------------------------6--6--
E|--4--4--4--4--4--4--4--4--4--4--------------------

G|--------------------------------------------------------------
D|--------------------------------------------------------------
A|--------------------------------------------------------------
E|--8--8-----8--8--8--8-----8--8--8--8-----8--8--8--8-----8--8--

G|--------------------------------------------------
D|--------------------------------6--4--------------
A|--------------------------------------6--4--------
E|--4--4--4--4--4--4--4--4--4--4--------------6--7--
 
G|--------------------------------------------------------------
D|--------------------------------------------------------------
A|--------------------------------------------------------------
E|--8--8-----8--8--8--8-----8--8--8--8-----8--8--8--8-----8--8--

G|--------------------------------------------------
D|-----------------------------6--6--6--4--4--------
A|--------------------------------------------6-----
E|--4--4--4--4--4--4--4--4--4--------------------7--

G|--------------------------------------------------------------
D|--------------------------------------------------------------
A|--------------------------------------------------------------
E|--8--8-----8--8--8--8-----8--8--8--8-----8--8--8--8-----8--8--

G|--------------------------------------------------
D|--------------------------------------4-----------
A|-----------------------------------6-----6--4-----
E|--4--4--4--4--4--4--4--4--4--4--4--------------6--

G|--------------------------------------------------------------
D|--------------------------------------------------------------
A|--------------------------------------------------------------
E|--8--8-----8--8--8--8-----8--8--8--8-----8--8--8--8-----8--8--
?? phase2
G|--------------------------------------------------------------------------------------------------
D|--------------------------------------------------------------------------------------------------
A|--------------------------------------------------------------------------------------------10----
E|--4--4--4--4--4--4--4--4--4--4--6--6--8--8--11-11-8--8--8--8--8--8--8--8--8--8--10-10-11-11----11-

G|--------------------------------------------------------------------------------------------------
D|--------------------------------------------------------------------------------10-10-8--8--------
A|--------------------------------------------------------------------------------------------10----
E|--4--4--4--4--4--4--4--4--4--4--6--6--8--8--11-11-8--8--8--8--8--8--8--8--8--8-----------------11-

G|--------------------------------------------------------------------------------------------------
D|--------------------------------------------------------------------------------------------------
A|--------------------------------------------------------------------------------------------------
E|--4--4--4--4--4--4--4--4--4--4--6--6--8--8--11-11-8--8--8--8--8--8--8--8--8--8--11-11-15-15-13-11-

G|--------------------------------------------------
D|--------------------------------------------------
A|--------------------------------------------------
E|--4--4--4--4--4--4--4--4--4--4--6--6--8--8--11-11-

G|-----------------------------------------------------------------------------
D|-----------------------------------------------------------------------------
A|-----------------------------------------------------------------------------
E|--8--11-0--6--6--6--10-8--11-0--6--6--6--10-8--11-0--6--6--6--10-8--11-0--6--




 








tabs and chords, guitar tabs, music transcription, music technology, deep learning, music information retrieval, transcribe into tabs & chords, chordify, music renditions, songsterr, reverbnation, tabulature, bollywood chords, ultimate guitar, yousician, guitar lessons, acoustic guitar, electric guitar, guitar tuner, 911 tabs