Guitar Tabs for Television - The Dream's Dream

(/) Slide Up  (\) Slide Down  (h) Hammer On  (p) Pull Off  (b) Bend (r) Release (v) Vibrato (x) Muted

Television - The Dream's Dream

 
E|-----------------------------------------------------------------------------------------
B|--------------7-----------------------------------------------7--------------------------
G|-----6--7--9-----9--7--6--7---6h-7p6-----------------6--7--9-----9--7--6--7---6h-7p6-----
D|--9-----------------------------------9-----------9-----------------------------------9--
A|-----------------------------------------------------------------------------------------
E|-----------------------------------------------------------------------------------------

E|-----------------------7--7--------------------------------------------------------------
B|--------------7--8--10----------------------------------------7--------------------------
G|-----6--7--9------------------6h-7p6-----------------6--7--9-----9--7--6--7---6h-7p6-----
D|--9-----------------------------------9-----------9-----------------------------------9--
A|-----------------------------------------------------------------------------------------
E|-----------------------------------------------------------------------------------------

E|-----------------------------------------7-----------------------------------------------
B|-----7-----------------------7--------------------10-7--8--10-7-----7--8--7--8-----------
G|--9-----9--7--9-----------9-----9--7--9-----------------------------------------7--------
D|-----------------9-----------------------------------------------------------------------
A|-----------------------------------------------------------------------------------------
E|-----------------------------------------------------------------------------------------

E|--------------------------------9--7-----------------------------7-----------------------
B|--8--7-----------7--8--7--8--10-------10-10-------7--8--7--8--------8--------------------
G|--------9--7--------------------------------------------------9--------9--7--------------
D|-----------------------------------------------------------------------------------------
A|-----------------------------------------------------------------------------------------
E|-----------------------------------------------------------------------------------------

E|--------------3-----------------3-----------------10----------------10-------------------
B|--------------3-----------------3-----------------10----------------10-------------------
G|-----------------------------------------------------------------------------------------
D|--4--5--7--5--------4--5--7--5-----------------------------------------------------------
A|-----------------------------------------------------------------------------------------
E|--------------------------------------9--10-12-10-------9--10-12-10----------------------

E|--------------------------------------------------------------
B|--------------------7--7--------7-----7--8-----8--7-----8-----
G|---7h9------9p7--------------------9-----------------9--------
D|-----------------9--------------------------------------------
A|--------------------------------------------------------------
E|--------------------------------------------------------------

E|--------------------------------------------------------------
B|-----------7--------------------------------15v---------------
G|--6--7--9-----9--7--6--7---6h-7p6-----------------------------
D|-----------------------------------9--------------------------
A|--------------------------------------------------------------
E|--------------------------------------------------------------

E|--------------------------------------------------------------
B|--------------7-----------------------------15v---------------
G|-----6--7--9-----9--7--6--7---6h-7p6--------------------------
D|--9-----------------------------------9-----------------------
A|--------------------------------------------------------------
E|--------------------------------------------------------------

E|-----------------------7--7-----------------------------------
B|--------------7--8--10----------------------15v---------------
G|-----6--7--9------------------6h-7p6--------------------------
D|--9-----------------------------------9-----------------------
A|--------------------------------------------------------------
E|--------------------------------------------------------------

E|--------------------------------------------------------------
B|--------------7-----------------------------15v---------------
G|-----6--7--9-----9--7--6--7---6h-7p6--------------------------
D|--9-----------------------------------9-----------------------
A|--------------------------------------------------------------
E|--------------------------------------------------------------

E|-----------------------------------------7-----------------------------------------
B|-----7-----------------------7--------------------10-7--8--10-7-----7--8--7--8-----
G|--9-----9--7--9-----------9-----9--7--9-----------------------------------------7--
D|-----------------9-----------------------------------------------------------------
A|-----------------------------------------------------------------------------------
E|-----------------------------------------------------------------------------------

E|--------------------------------9--7----------------------------------------------
B|--8--7-----------7--8--7--8--10-------10-10-------7--8--7--8--8--------------------
G|--------9--7-----------------------------------------------------------------------
D|-----------------------------------------------------------------------------------
A|-----------------------------------------------------------------------------------
E|-----------------------------------------------------------------------------------

solo
E|--------------------9--7-----7--7-----------------7--9-----7--7--
B|--7-----------8--10-------10-------10-------7--10-------10-------
G|-----9---7/9-----------------------------------------------------
D|-----------------------------------------------------------------
A|-----------------------------------------------------------------
E|-----------------------------------------------------------------

E|-----------------------------------9--------7--------9--------7--9--10-10-
B|--8--7------7h8---7h8--8------7h8------7h8------7h8------7h8--------------
G|--------9-----------------------------------------------------------------
D|--------------------------------------------------------------------------
A|--------------------------------------------------------------------------
E|--------------------------------------------------------------------------

E|--10-10-9--7--10-10-10-10-9--7--10-9--10-9--10-12-10-12-12-10-12-14-12-15-14-15/17-15-14-15-14
B|----------------------------------------------------------------------------------------------
G|----------------------------------------------------------------------------------------------
D|----------------------------------------------------------------------------------------------
A|----------------------------------------------------------------------------------------------
E|----------------------------------------------------------------------------------------------

E|-----------------------------------------------7-----------
B|-----------7--8--10-8--7--8--------------8--10----10-8--10-
G|---6h-7h9------------------------6h-7h9--------------------
D|-----------------------------------------------------------
A|-----------------------------------------------------------
E|-----------------------------------------------------------

E|-----------5--7--9--7--5--7--------------7--9--10-9--7--
B|--------------------------------------------------------
G|---6h-7h9------------------------6h-7h9-----------------
D|--------------------------------------------------------
A|--------------------------------------------------------
E|--------------------------------------------------------

E|--------------------------------------------------5--5-----------
B|--------------------------7--5-----8-----8--7--5--------7--5--7--
G|--6--------6--7--9--7-----------7--------------------------------
D|-----------------------------------------------------------------
A|-----------------------------------------------------------------
E|-----------------------------------------------------------------

E|-----7--5--------5--7--9--9--7-----10-
B|--7--------8--8-----------------10----
G|--------------------------------------
D|--------------------------------------
A|--------------------------------------
E|--------------------------------------

E|--------------------12----------------------14----------------------15-------------------15-
B|-----------7--8--------------------7--8--------------------7--8--------------------7--8-----
G|--6--7--9-----------------6--7--9-----------------6--7--9-----------------6--7--9-----------
D|--------------------------------------------------------------------------------------------
A|--------------------------------------------------------------------------------------------
E|--------------------------------------------------------------------------------------------

outro
E|-----------7-----------------------
B|--8--7--------------7--------------
G|--------9--------------9--7--6-----
D|--------------------------------9--
A|-----------------------------------
E|-----------------------------------

E|--
B|--
G|--
D|--
A|--
E|--

--


Use manual mode to free up cursor. Paste any tab in acousterr tab maker and we'll play it !!!
tabs and chords, guitar tabs, music transcription, music technology, deep learning, music information retrieval, transcribe into tabs & chords, chordify, music renditions, songsterr, reverbnation, tabulature, bollywood chords, ultimate guitar, yousician, guitar lessons, acoustic guitar, electric guitar, guitar tuner, 911 tabs