Lifting Shadows Off A Dream - Dream Theater - Guitar Tabs

JP Lead
    
                                                                                                                                                                                                                                                                                                                                                                                                                                                                                                                                                                                                                                                                                                                                                                                                                                                                                                                                                                                                                                                                                                                                                                                              
E|-----------12------------|-----------------------|
B|-----------------12------|-----------------------|
G|-------------------------|12-------------------11|
D|-------------------------|---------------10------|
A|-------------------------|---------10------------|
E|--7----------------------|-----------------------|

    
                                                                                                                                                                                                                                                                                                                                                                                                                                                                                                                                                                                                                                                                                                                                                                                                                                                                                                                                                                                                                                                                                                                                                                                              
E|-----------12------------|-----------------------|
B|-----------------12------|-----------------------|
G|-------------------------|12-------------------11|
D|-------------------------|---------------10------|
A|-------------------------|---------10------------|
E|--7----------------------|-----------------------|

    
                                                                                                                                                                                                                                                                                                                                                                                                                                                                                                                                                                                                                                                                                                                                                                                                                                                                                                                                                                                                                                                                                                                                                                                              
E|-----------12------------|-----------------------|
B|-----------------12------|-----------------------|
G|-------------------------|12-------------------11|
D|-------------------------|---------------10------|
A|-------------------------|---------10------------|
E|--7----------------------|-----------------------|

    
                                                                                                                                                                                                                                                                                                                                                                                                                                                                                                                                                                                                                                                                                                                                                                                                                                                                                                                                                                                                                                                                                                                                                                                              
E|-----------12------------|-----------------------|
B|-----------------12------|-----------------------|
G|-------------------------|12-------------------11|
D|-------------------------|---------------10------|
A|-------------------------|---------10------------|
E|--7----------------------|-----------------------|

    
                                                                                                                                                                                                                                                                                                                                                                                                                                                                                                                                                                                                                                                                                                                                                                                                                                                                                                                                                                                                                                                                                                                                                                                              
E|-----------12------------|-----------------------|
B|-----------------12------|-----------------------|
G|-------------------------|12-------------------11|
D|-------------------------|---------------10------|
A|-------------------------|---------10------------|
E|--7----------------------|-----------------------|

    
                                                                                                                                                                                                                                                                                                                                                                                                                                                                                                                                                                                                                                                                                                                                                                                                                                                                                                                                                                                                                                                                                                                                                                                              
E|-----------12------------|-----------------------|
B|-----------------12------|-----------------------|
G|-------------------------|12-------------------11|
D|-------------------------|---------------10------|
A|-------------------------|---------10------------|
E|--7----------------------|-----------------------|

    
    Bm                                                                                                                                                                                                                                                                                                                                                                                                                                                                                                                                                                                             Bm                                                                                                                                                                                                                                                                                                                                                                                                                                                                                                                                                                                             
E|-------------------------|---------------0-------|
B|-------------------------|---------3--------3----|
G|-----------9-------------|------2--------------2-|
D|--------9--------9--9----|---0-------------------|
A|-----9-----------------9-|-----------------------|
E|--7-----------7----------|3-----------3----------|

    
    Bm                                                                                                                                                                                                                                                                                                                                                                                                                                                                                                                                                                                             Bm                                                                                                                                                                                                                                                                                                                                                                                                                                                                                                                                                                                             
E|-----------0-------------|---------------0-------|
B|--------0--------0--0----|---------3--------3----|
G|-------------------------|------2--------------2-|
D|-----4-----------------4-|---0-------------------|
A|--2-----------2----------|-----------------------|
E|-------------------------|3-----------3----------|

    
    Bm                                                                                                                                                                                                                                                                                                                                                                                                                                                                                                                                                                                             Bm                                                                                                                                                                                                                                                                                                                                                                                                                                                                                                                                                                                             
E|-----------0-------------|---------------0-------|
B|--------0--------0--0----|---------3--------3----|
G|-------------------------|------2--------------2-|
D|-----4-----------------4-|---0-------------------|
A|--2-----------2----------|-----------------------|
E|-------------------------|3-----------3----------|

    
    Bm                                                                                                                                                                                                                                                                                                                                                                                                                                                                                                                                                                                             Bm                                                                                                                                                                                                                                                                                                                                                                                                                                                                                                                                                                                             
E|-----------0-------------|---------0-------------|
B|--------0--------0--0----|------0--------0--0----|
G|-------------------------|-----------------------|
D|-----4-----------------4-|---2-----------------2-|
A|--2-----------2----------|0-----------0----------|
E|-------------------------|-----------------------|

    
    Bsus2                                                                                                                                                                                                                                                                                                                                                                                                                                                                                                                                                                                             Bsus2                                                                                                                                                                                                                                                                                                                                                                                                                                                                                                                                                                                             
E|-------------------------|-----------------------|
B|--2-----0-----2-----0----|3-----------3----------|
G|-------------------------|------4-----------4----|
D|-----4-----4-----4-----4-|---4-----4-----4-----4-|
A|-------------------------|-----------------------|
E|-------------------------|-----------------------|

    
    F#sus4                                                                                                                                                                                                                                                                                                                                                                                                                                                                                                                                                                                             F#sus4                                                                                                                                                                                                                                                                                                                                                                                                                                                                                                                                                                                             
E|-------------------------|0-----------0----------|
B|--2-----0-----2-----0----|------0-----------0----|
G|-------------------------|-----------------------|
D|-----4-----4-----4-----4-|---2-----2-----2-----2-|
A|-------------------------|-----------------------|
E|-------------------------|-----------------------|

    
    Bsus2                                                                                                                                                                                                                                                                                                                                                                                                                                                                                                                                                                                             Bsus2                                                                                                                                                                                                                                                                                                                                                                                                                                                                                                                                                                                             
E|-------------------------|-----------------------|
B|--2-----0-----2-----0----|3-----------3----------|
G|-------------------------|------4-----------4----|
D|-----4-----4-----4-----4-|---4-----4-----4-----4-|
A|-------------------------|-----------------------|
E|-------------------------|-----------------------|

    
    F#sus4                                                                                                                                                                                                                                                                                                                                                                                                                                                                                                                                                                                             F#sus4                                                                                                                                                                                                                                                                                                                                                                                                                                                                                                                                                                                             
E|-------------------------|0-----------0----------|
B|--2-----0-----2-----0----|------0-----------0----|
G|-------------------------|-----------------------|
D|-----4-----4-----4-----4-|---2-----2-----2-----2-|
A|-------------------------|-----------------------|
E|-------------------------|-----------------------|

    
    D6                                                                                                                                                                                                                                                                                                                                                                                                                                                                                                                                                                                             D6                                                                                                                                                                                                                                                                                                                                                                                                                                                                                                                                                                                             
E|-------------------------|0-----------0----------|
B|--3-----------3----------|------0-----------0----|
G|--------4-----------4----|-----------------------|
D|-----4-----4-----4-----4-|---4-----4-----4-----4-|
A|-------------------------|-----------------------|
E|-------------------------|-----------------------|

    
    G                                                                                                                                                                                                                                                                                                                                                                                                                                                                                                                                                                                             G                                                                                                                                                                                                                                                                                                                                                                                                                                                                                                                                                                                             
E|--3-----------2----------|0-----------0----------|
B|--------3-----------3----|------3-----------3----|
G|-----0-----0-----0-----0-|---2-----0-----2-----0-|
D|-------------------------|-----------------------|
A|-------------------------|-----------------------|
E|-------------------------|-----------------------|

    
    D                                                                                                                                                                                                                                                                                                                                                                                                                                                G5                                                                                                                                             D                                                                                                                                                                                                                                                                                                                                                                                                                                                G5                                                                                                                                             
E|--5-----3-----2-----3--5-|---3-----2-----0-------|
B|-----3-----3-----3-------|3-----3-----3--------3-|
G|-------------------------|------------------2----|
D|-------------------------|-----------------------|
A|-------------------------|-----------------------|
E|-------------------------|-----------------------|

    
    D                                                                                                                                                                                                                                                                                                                                                                                                                                                G5(9)                                                                                                                                             D                                                                                                                                                                                                                                                                                                                                                                                                                                                G5(9)                                                                                                                                             
E|--5-----3-----2-----3--5-|---3-----2-----0-------|
B|-----3-----3-----3-------|3-----3-----3--------3-|
G|-------------------------|------------------2----|
D|-------------------------|-----------------------|
A|-------------------------|-----------------------|
E|-------------------------|-----------------------|

    
    Bm                                                                                                                                                                                                                                                                                                                                                                                                                                                Asus4                                                                                                                                             Bm                                                                                                                                                                                                                                                                                                                                                                                                                                                Asus4                                                                                                                                             
E|--5-----3-----2-----3--5-|---3-----2-----0-------|
B|-----3-----3-----3-------|3-----3-----3--------3-|
G|-------------------------|------------------2----|
D|-------------------------|-----------------------|
A|-------------------------|-----------------------|
E|-------------------------|-----------------------|

    
    Gmaj9                                                                                                                                                                                                                                                                                                                                                                                                                                                Em                                                                                                                                             Gmaj9                                                                                                                                                                                                                                                                                                                                                                                                                                                Em                                                                                                                                             
E|--5-----3-----2-----3--5-|---3-----2-----0-------|
B|-----3-----3-----3-------|3-----3-----3--------3-|
G|-------------------------|------------------2----|
D|-------------------------|-----------------------|
A|-------------------------|-----------------------|
E|-------------------------|-----------------------|

    
    Gsus2add11+                                                                                                                                                                                                                                                                                                                                                                                                                                                                                                                                                                                             Gsus2add11+                                                                                                                                                                                                                                                                                                                                                                                                                                                                                                                                                                                             
E|-------------------------|-----------------------|
B|--------0--2--3--0--2----|---------2--3-----2----|
G|-----------------------2-|------2--------2-----2-|
D|-----4-------------------|---0-------------------|
A|--2----------------------|-----------------------|
E|-------------------------|3----------------------|

    
    Gsus2add11+                                                                                                                                                                                                                                                                                                                                                                                                                                                                                                                                                                                             Gsus2add11+                                                                                                                                                                                                                                                                                                                                                                                                                                                                                                                                                                                             
E|-------------------------|-----------------------|
B|--------0--2--3--0--2----|---------2--3-----2----|
G|-----------------------2-|------2--------2-----2-|
D|-----4-------------------|---0-------------------|
A|--2----------------------|-----------------------|
E|-------------------------|3----------------------|

    
    Gsus2add11+                                                                                                                                                                                                                                                                                                                                                                                                                                                                                                                                                                                             Gsus2add11+                                                                                                                                                                                                                                                                                                                                                                                                                                                                                                                                                                                             
E|-------------------------|-----------------------|
B|--------0--2--3--0--2----|---------2--3-----2----|
G|-----------------------2-|------2--------2-----2-|
D|-----4-------------------|---0-------------------|
A|--2----------------------|-----------------------|
E|-------------------------|3----------------------|

    
    Bm                                                                                                                                                                                                                                                                                                                                                                                                                                                                                                                                                                                             Bm                                                                                                                                                                                                                                                                                                                                                                                                                                                                                                                                                                                             
E|-------------------------|------------0----------|
B|--------0--2--3--0--2----|---------2--------2----|
G|-----------------------2-|------2--------2-----1-|
D|-----4-------------------|---2-------------------|
A|--2----------------------|0----------------------|
E|-------------------------|-----------------------|

    
    Csus2add11+                                                                                                                                                                                                                                                                                                                                                                                                                                                                                                                                                                                             Csus2add11+                                                                                                                                                                                                                                                                                                                                                                                                                                                                                                                                                                                             
E|--------0--2--3--0--2----|---------2--3-----2----|
B|-----0-----------------3-|------3--------3-----3-|
G|-------------------------|---0-------------------|
D|--2----------------------|-----------------------|
A|-------------------------|3----------------------|
E|-------------------------|-----------------------|

    
    Gsus2add11+                                                                                                                                                                                                                                                                                                                                                                                                                                                                                                                                                                                             Gsus2add11+                                                                                                                                                                                                                                                                                                                                                                                                                                                                                                                                                                                             
E|-------------------------|-----------------------|
B|--------0--2--3--0--2----|---------2--3-----2----|
G|-----------------------2-|------2--------2-----2-|
D|-----4-------------------|---0-------------------|
A|--2----------------------|-----------------------|
E|-------------------------|3----------------------|

    
    Cadd11+                                                                                                                                                                                                                                                                                                                                                                                                                                                                                                                                                                                             Cadd11+                                                                                                                                                                                                                                                                                                                                                                                                                                                                                                                                                                                             
E|-----------0--2-----0----|------------0----------|
B|--------1--------1-----1-|---------3--------3----|
G|-----0-------------------|------2--------2-----2-|
D|-------------------------|---2-------------------|
A|--3----------------------|0----------------------|
E|-------------------------|-----------------------|

    
    Gsus2                                                                                                                                                                                                                                                                                                                                                                                                                                                                                                                                                                                             Gsus2                                                                                                                                                                                                                                                                                                                                                                                                                                                                                                                                                                                             
E|--------------3-----2----|-----------------------|
B|-----------3-----3-----3-|------------0--------0-|
G|--------2----------------|---------0--------0----|
D|-----0-------------------|------4--------4-------|
A|-------------------------|---2-------------------|
E|--3----------------------|0----------------------|

About Breaking the Fourth Wall : American progressive metal/rock band Dream Theater recorded live at the Boston Opera House . The release was announced by the band on August 21, 2014 . The DVD and Blu-ray releases include bonus features . The concert was filmed and directed by Pierre and Fran├žois Lamoureux . It features the Berklee College of Music "World Strings" and "Concert Choir" on all songs from Breaking the Fourth Wall has been released in a number of formats: Breaking the Fourth Wall's most popular songs include The Looking Glass. It had an affiliation to bands - Dream Theater. Its music is influenced by genres - progressive metal , progressive rock.

tabs and chords, guitar tabs, music transcription, music technology, deep learning, music information retrieval, transcribe into tabs & chords, chordify, music renditions, songsterr, reverbnation, tabulature, bollywood chords, ultimate guitar, yousician, guitar lessons, acoustic guitar, electric guitar, guitar tuner, 911 tabs