Bass Tabs for Im Already Tracer

(/) Slide Up  (\) Slide Down  (h) Hammer On  (p) Pull Off  (b) Bend (r) Release (v) Vibrato (x) Muted

Tabs for Song : 
BPM : 200

Song lyrics here
G|-----------------------------------7--11----7-----
D|--------------------------9--9--9-----------------
A|-----------5--9-----5-----------------------------
E|--7--7--7-----------------------------------------

G|-----------------------------------7--------------
D|--------------------------9--9--9-----9--7-----7--
A|-----------7--9--7--5--7--------------------9-----
E|--9--9--9-----------------------------------------

G|--------------------------------------------------
D|--------------------------------------------------
A|--------------9--------------9--------------------
E|--7-----10----------10----------------10----9-----

G|-----------------------------------7--------------
D|--------------------------9--9--9-----9-----7-----
A|--------------9-----------------------------------
E|--9-----10----------10----------------------------

G|-----------------------------------7--11----7-----
D|--------------------------9--9--9-----------------
A|-----------5--9-----5-----------------------------
E|--7--7--7-----------------------------------------

G|--------------------------6--6--6--7--6-----------
D|-----------------------------------------7--7-----
A|-----------7--9-----7-----------------------------
E|--9--9--9-----------------------------------------



Song lyrics here
G|--
D|--
A|--
E|--

Paste any tab in acousterr's tab maker and we'll play it !!!
Now supports capo and sound effects for vibrato/pull-off/hammer/bends/mutes etc !!! Checkout help section
tabs and chords, guitar tabs, music transcription, music technology, deep learning, music information retrieval, transcribe into tabs & chords, chordify, music renditions, songsterr, reverbnation, tabulature, bollywood chords, ultimate guitar, yousician, guitar lessons, acoustic guitar, electric guitar, guitar tuner, 911 tabs