Bass Tabs for Im A Mess



Song lyrics her

G|--------------------------------------
D|--------0-----------------4-----------
A|--2--2-----0--0--2--------------------
E|--------------------2--2-----2--2--2--


G|--------------
D|--0--4--2-----
A|-----------0--
E|--------------


Paste any tab in acousterr's tab maker and we'll play it !!!
Now supports capo and sound effects for vibrato/pull-off/hammer/bends/mutes etc !!! Checkout help section
tabs and chords, guitar tabs, music transcription, music technology, deep learning, music information retrieval, transcribe into tabs & chords, chordify, music renditions, songsterr, reverbnation, tabulature, bollywood chords, ultimate guitar, yousician, guitar lessons, acoustic guitar, electric guitar, guitar tuner, 911 tabs