Im Sad - Guitar Tabs

E|-------------------------|-----------------------|-----------------------|-----------------------|
B|-----0-----------0-------|---0-----------0-------|---0-----------0-------|---0-----------0-------|
G|--------0-----------0----|------0-----------0----|------0-----------0----|------0-----------0----|
D|-----------4-----------4-|---------4-----------4-|---------4-----------4-|---------4-----------4-|
A|--3-----------3----------|5-----------5----------|7-----------7----------|5-----------5----------|
E|-------------------------|-----------------------|-----------------------|-----------------------|


E|-------------------------|-----------------------|-----------------------|-----------------------|
B|-----5-----------5-------|---7-----------7-------|---0-----------0-------|---0-----------0-------|
G|--------0-----------0----|------0-----------0----|------0-----------0----|------0-----------0----|
D|-----------4-----------4-|---------4-----------4-|---------4-----------4-|---------4-----------4-|
A|--3-----------3----------|5-----------5----------|7-----------7----------|5-----------5----------|
E|-------------------------|-----------------------|-----------------------|-----------------------|

tabs and chords, guitar tabs, music transcription, music technology, deep learning, music information retrieval, transcribe into tabs & chords, chordify, music renditions, songsterr, reverbnation, tabulature, bollywood chords, ultimate guitar, yousician, guitar lessons, acoustic guitar, electric guitar, guitar tuner, 911 tabs