Guitar Tabs for Idea01_verse

(/) Slide Up  (\) Slide Down  (h) Hammer On  (p) Pull Off  (b) Bend (r) Release (v) Vibrato (x) Muted

Tabs & Chords
BPM : 85.0
Check Track 2 for Chord Positions 

    F              Dm       A                    Dm                F     D           A     Am 
E|-----0-----0--0--------------0-----0--0--------------0-----0-----------------------0--0--0--
B|--3--------------3-----3--3-----3--------3-----3--3-----3--------3-----3-----3--------------
G|--------------------------------------------------------------------------------------------
D|--------------------------------------------------------------------------------------------
A|--------------------------------------------------------------------------------------------
E|--------------------------------------------------------------------------------------------

             C        F              Dm          A                    Dm    F                 Dm 
E|--0--0-----0--0-----0--0--0--------------------0--0--0-----0--------0-----0-----0-----------0--
B|--------3--------3-----------3-----3-----3--------------3-----4--------3-----------3--3--------
G|-----------------------------------------------------------------------------------------------
D|-----------------------------------------------------------------------------------------------
A|-----------------------------------------------------------------------------------------------
E|-----------------------------------------------------------------------------------------------

             A           Am    C                 D                                   Dm          
E|--0--3-----0--0--0-----0--0--0--0-----------------------------------------------0-----0--------
B|--------3--------------------------3--3--3-----3-----3--4--3-----3--3--3--3--------6-----------
G|--------------------------------------------------------------------------------------------5--
D|-----------------------------------------------------------------------------------------------
A|-----------------------------------------------------------------------------------------------
E|-----------------------------------------------------------------------------------------------

    F  
E|-----
B|-----
G|--5--
D|-----
A|-----
E|-----

Guitar Tabs for Idea01_verse






    F              Dm       A                    Dm                F     D           A     Am 
E|--1--------------1--------0--------------------1-----------------1-----2-----------0-----0--
B|--1--------------3--------2--------------------3-----------------1-----3-----------2-----1--
G|--2--------------2--------2--------------------2-----------------2-----2-----------2-----2--
D|--3--------------0--------2--------------------0-----------------3-----0-----------2-----2--
A|--3-----------------------0--------------------------------------3-----------------0-----0--
E|--1--------------------------------------------------------------1--------------------------

             C        F              Dm          A                    Dm    F                 Dm 
E|-----------0--------1--------------1-----------0--------------------1-----1-----------------1--
B|-----------1--------1--------------3-----------2--------------------3-----1-----------------3--
G|-----------0--------2--------------2-----------2--------------------2-----2-----------------2--
D|-----------2--------3--------------0-----------2--------------------0-----3-----------------0--
A|-----------3--------3--------------------------0--------------------------3--------------------
E|--------------------1-----------------------------------------------------1--------------------

             A           Am    C                 D                                   Dm          
E|-----------0-----------0-----0-----------------2-----------------------------------1-----------
B|-----------2-----------1-----1-----------------3-----------------------------------3-----------
G|-----------2-----------2-----0-----------------2-----------------------------------2-----------
D|-----------2-----------2-----2-----------------0-----------------------------------0-----------
A|-----------0-----------0-----3-----------------------------------------------------------------
E|-----------------------------------------------------------------------------------------------

    F  
E|--1--
B|--1--
G|--2--
D|--3--
A|--3--
E|--1--

tabs and chords, guitar tabs, music transcription, music technology, deep learning, music information retrieval, transcribe into tabs & chords, chordify, music renditions, songsterr, reverbnation, tabulature, bollywood chords, ultimate guitar, yousician, guitar lessons, acoustic guitar, electric guitar, guitar tuner, 911 tabs