Guitar Tabs for Beginnings (intro-verse)

(/) Slide Up  (\) Slide Down  (h) Hammer On  (p) Pull Off  (b) Bend (r) Release (v) Vibrato (x) Muted

Tabs & Chords
BPM : 110.0
Check Track 2 for Chord Positions 

          F                                                                          A#       
E|-----15-15----------------------------------8-----8--8--8--8--8--8--8--8--8--8-----5-----5--
B|-----------8--8--8--8--8--8--8--8--8--8-----------------------------------------------------
G|--------------------------------------------------------------------------------------------
D|--------------------------------------------------------------------------------------------
A|--------------------------------------------------------------------------------------------
E|--1-----------------------------------------------------------------------------------------

                         Dm                                           G                    F  
E|--5--5--5--5--5--5--5--5-----0--0--0--0--0--0--0--0--0--0-----------------------------------
B|--------------------------------------------------------------8-----8--8--8--8--8--8--8--8--
G|--------------------------------------------------------------------------------------------
D|--------------------------------------------------------------------------------------------
A|--------------------------------------------------------------------------------------------
E|--------------------------------------------------------------------------------------------

                                  A#                   Dm                                        
E|-----8--8--8--8--8--8--8--8-----5--5--5--5--5--5--5--5--5-----0--0--0--0--0--0--0--0--0--------
B|-----------------------------------------------------------------------------------------------
G|--------------------------------------------------------------------------------------------7--
D|-----------------------------------------------------------------------------------------------
A|-----------------------------------------------------------------------------------------------
E|-----------------------------------------------------------------------------------------------

                               F              A#       Dm       F                                
E|-----------------------------8-----8--8-----5--5-----5--5-----0--0--0--0--0--0--0--0--0--------
B|--8--8--8--8--8--8-----8--------------------------6-----------------------------------------8--
G|-----------------------------------------------------------------------------------------------
D|-----------------------------------------------------------------------------------------------
A|-----------------------------------------------------------------------------------------------
E|-----------------------------------------------------------------------------------------------

                   Dm             F     
E|--------------------15-------------0--
B|--8--8-----6--6--8--------------------
G|--------7-----------------------5-----
D|--------------------------------------
A|-----------------------0--0--0--------
E|--------------------------------------

Guitar Tabs for Beginnings (intro-verse)






          F                                                                          A#       
E|--------1--------------------------------------------------------------------------1--------
B|--------1--------------------------------------------------------------------------3--------
G|--------2--------------------------------------------------------------------------3--------
D|--------3--------------------------------------------------------------------------3--------
A|--------3--------------------------------------------------------------------------1--------
E|--------1-----------------------------------------------------------------------------------

                         Dm                                           G                    F  
E|-----------------------1--------------------------------------------3--------------------1--
B|-----------------------3--------------------------------------------3--------------------1--
G|-----------------------2--------------------------------------------4--------------------2--
D|-----------------------0--------------------------------------------5--------------------3--
A|--------------------------------------------------------------------5--------------------3--
E|--------------------------------------------------------------------3--------------------1--

                                  A#                   Dm                                        
E|--------------------------------1--------------------1-----------------------------------------
B|--------------------------------3--------------------3-----------------------------------------
G|--------------------------------3--------------------2-----------------------------------------
D|--------------------------------3--------------------0-----------------------------------------
A|--------------------------------1--------------------------------------------------------------
E|-----------------------------------------------------------------------------------------------

                               F              A#       Dm       F                                
E|-----------------------------1--------------1--------1--------1--------------------------------
B|-----------------------------1--------------3--------3--------1--------------------------------
G|-----------------------------2--------------3--------2--------2--------------------------------
D|-----------------------------3--------------3--------0--------3--------------------------------
A|-----------------------------3--------------1-----------------3--------------------------------
E|-----------------------------1--------------------------------1--------------------------------

                   Dm             F     
E|-----------------1--------------1-----
B|-----------------3--------------1-----
G|-----------------2--------------2-----
D|-----------------0--------------3-----
A|--------------------------------3-----
E|--------------------------------1-----

tabs and chords, guitar tabs, music transcription, music technology, deep learning, music information retrieval, transcribe into tabs & chords, chordify, music renditions, songsterr, reverbnation, tabulature, bollywood chords, ultimate guitar, yousician, guitar lessons, acoustic guitar, electric guitar, guitar tuner, 911 tabs