Guitar Tabs for Ichiko Aoba - Fuwa Rin

intro
 
F|--------------------------------------------------------------------------------0-----------------
C|--------------------2-----------------------2---2h-3p2-----------------------0--------------------
G|--------------2--------------------------2--------------2-----------------2-----------------------
D|--------0-----------------------------0--------------------0-----------0--------------------------
A|--2--------------------------------2--------------------------------------------------------------
F|---------------------------------------------------------------0h-2h3-----------------------------

F|--------------------------------------------------------------------------------0-----------------
C|--------------------2-----------------------2---2h-3p2-----------------------0--------------------
G|--------------2--------------------------2--------------2-----------------2-----------------------
D|--------0-----------------------------0--------------------0-----------0--------------------------
A|--2--------------------------------2--------------------------------------------------------------
F|---------------------------------------------------------------0h-2h3-----------------------------


The amount of bars these patterns are played changes, but this is the basic melody.

F|--------------------------------------------------------------------------------------------------
C|-----------2-----------2-----------2-----------------------0-----------0-----------0--------------
G|--------2-----------2-----------2-----------------------2-----------2-----------2-----------------
D|-----0-----------0-----------0-----------0-----------0-----------0-----------0-----------0--------
A|--2-----------2-----------2-----------2-----0-----------------------------------------------------
F|--------------------------------------------------3-----------3-----------3-----------3-----2-----

F|--------------------------------------------------------------------------------------------------
C|-----------2-----------2-----------2-----------2-----------0-----------0-----------0-----------0--
G|--------0-----------0-----------0-----------0-----------3-----------3-----------3-----------3-----
D|-----2-----------2-----------2-----------2--------------------------------------------------------
A|-----------------------------------------------------4-----------4-----------4-----------4--------
F|--0-----------0-----------0-----------0-----------2-----------2-----------2-----------2-----------




F|-----------0--2--------------------------------------------0--2--------------------------------0--
C|------2h3-----------2-----------------------0---------2h3-----------2-----------------------0-----
G|------2h------------2--------------------2------------2h------------2--------------------2--------
D|------0h------------0-----0-----------0---------------0h------------0-----0-----------0-----------
A|--2--------------2--------------------------------2--------------2--------------------------------
F|-----------------------------2---2/3-----------------------------------------2---2/3--------------


The amount of bars these patterns are played changes, but this is the basic melody.

F|--------------------------------------------------------------------------------------------------
C|--------0-----------0-----------0-----------0-----------0-----------0-----------0-----------0-----
G|-----------6-----------6-----------6-----------6-----------2-----------2-----------2-----------2--
D|-----7-----------7-----------7-----------7-----------0-----------0-----------0-----------0--------
A|--5-----------5-----------5-----------5-----------------------------------------------------------
F|--------------------------------------------------3-----------3-----------3-----------3-----------




F|--------------------------------------------------------------------------------------------------
C|--------2-----------0-----------------0-----------------2-----------0-----------------0-----------
G|--------2-----------0-----------------0-----------------2-----------0-----------------0-----------
D|--------2-----2-----0-----------0-----------0-----------2-----2-----0-----------0-----------0-----
A|--0-----------------------------------------------0-----------------------------------------------
F|--------------------3-----------------------------------------------3-----------------------------

F|--------------------------------------------------------------------------------------------------
C|--------0-----------0-----------0-----------0-----------0-----------0-----------0-----------0-----
G|-----------6-----------6-----------6-----------6-----------2-----------2-----------2-----------2--
D|-----7-----------7-----------7-----------7-----------0-----------0-----------0-----------0--------
A|--5-----------5-----------5-----------5-----------------------------------------------------------
F|--------------------------------------------------3-----------3-----------3-----------3-----------




F|--------------------------------------------------------------------------------------------------
C|--------2-----------0-----------------0-----------------2--------------------------0--------------
G|--------2-----------0-----------------0-----------------2--------------------------0--------------
D|--------2-----2-----0-----------0-----------0-----------2--------------------------0--------0-----
A|--0-----------------------------------------------0-----------0-----------------------------------
F|--------------------3--------------------------------------------------------------3-----3-----2--

F|--------------------------------------------------------------------------------------------------
C|--------------2-----------------------------------0-----------------------------------------------
G|-----------0-----0--------------3-----------3-----------------------------------------------------
D|--------2-----------2-----------------------------------------------------------------------------
A|--------------------------------4-----------------------------------------------------------------
F|-----0--------------------2-----------2-----------------------------------------------------------

Previous patterns are repeated til end.


tabs and chords, guitar tabs, music transcription, music technology, deep learning, music information retrieval, transcribe into tabs & chords, chordify, music renditions, songsterr, reverbnation, tabulature, bollywood chords, ultimate guitar, yousician, guitar lessons, acoustic guitar, electric guitar, guitar tuner, 911 tabs