Guitar Tabs for Kung Di Rin Lang Ikaw

(/) Slide Up  (\) Slide Down  (h) Hammer On  (p) Pull Off  (b) Bend (r) Release (v) Vibrato (x) Muted

Tabs for Song : 

Song lyrics here
E|--------------------------------------------------------------------------------------------------------------------------------------------------------------------------
B|--------5--4--------------5--4--------------------------------------------------------5--4--------------5---5/7--5--4---------7/9--7--7--5--5------------7/9--7---7\5--7--
G|---3/4-----------4---3/4-----------4--4--2-----4-----------------4--2--2--1------3/4-----------4---3/4-----------------4--4--------------------4--4--4--------------------
D|--------------6-----------------6-----------6-----4--2--4--6--7--------------4--------------6-----------------------------------------------------------------------------
A|--------------------------------------------------------------------------------------------------------------------------------------------------------------------------
E|--------------------------------------------------------------------------------------------------------------------------------------------------------------------------

Song lyrics here
E|-----------------------------------------------------------------------------
B|--5--9-----------7--9--7--7--5--7--5--5--7---7/9--10-9--7--5--7---7/9--5--7--
G|--------6--9--9--------------------------------------------------------------
D|-----------------------------------------------------------------------------
A|-----------------------------------------------------------------------------
E|-----------------------------------------------------------------------------


E|-----------------------------------------------------------------------------
B|------5/9--7--5--------5-----7--5--5--9---9/10-9--7--5--5---7/9--7---7\5--7--
G|--4--------------4--4-----4--------------------------------------------------
D|-----------------------------------------------------------------------------
A|-----------------------------------------------------------------------------
E|-----------------------------------------------------------------------------


E|--------------------------------------------------------------------------------------------
B|------5/9--7--5--------5-----7--5--5--9---9/10-9--7--5--5---7/9--7---7\5------------5/7--7--
G|--4--------------4--4-----4------------------------------------------------3/4--4-----------
D|--------------------------------------------------------------------------------------------
A|--------------------------------------------------------------------------------------------
E|--------------------------------------------------------------------------------------------

tabs and chords, guitar tabs, music transcription, music technology, deep learning, music information retrieval, transcribe into tabs & chords, chordify, music renditions, songsterr, reverbnation, tabulature, bollywood chords, ultimate guitar, yousician, guitar lessons, acoustic guitar, electric guitar, guitar tuner, 911 tabs