Guitar Tabs for Ichiko Aoba - The Rain From Light And Shadow

BPM : 200
capo on 1st fret
 
E|--------------------------------------------------------------------------------------------------------------
B|--------------------------------------------------------------------------------------------------------------
G|-----------4-----------------4-----------------2-----------------2-----------------2-----------------2--------
D|--------0-----0-----------0-----0-----------2-----2-----------2-----2-----------2-----2-----------2-----2-----
A|-----4-----------4-----4-----------4-----4-----------4-----4-----------4-----4-----------4-----4-----------4--
E|--3-----------------3-----------------3-----------------3-----------------2-----------------2-----------------

E|-----------------------------------------------------------------------------------------------------0--------
B|-----------------------------------------------------------------------------------4--------------------------
G|-----------0-----------------0-----------------0-----------------0--------------4-----4-----------4-----4-----
D|--------0-----0-----------0-----0-----------0-----0-----------0-----0--------2-----------2-----2-----------2--
A|-----3-----------3-----3-----------3-----3-----------3-----3-----------0--4-----------------3-----------------
E|--1-----------------1-----------------0-----------------0-----------------------------------------------------

E|-----------------------------------------------2-----------------2-----------------2--------0-----------1-----
B|-----------0-----------------0-----------------0-----------------0-----------------0--------2-----------2-----
G|--------2-----2-----------2-----2--------------0-----------------0-----------------0--------2-----------2-----
D|-----2-----------2-----1-----------1-----------2-----2-----------1-----1-----------0--------2-----2-----------
A|--------------------2-----------------------2-----------------2-----------------2--------0--------------0-----
E|--2--------------------------------------0-----------------0-----------------0--------------------------------

E|--------------------------------------------------------------------------------------------------------------
B|--------------------------------------------------------------------------------------------------------------
G|-----------4-----------------4-----------------2-----------------2-----------------2-----------------2--------
D|--------0-----0-----------0-----0-----------2-----2-----------2-----2-----------2-----2-----------2-----2-----
A|-----4-----------4-----4-----------4-----4-----------4-----4-----------4-----4-----------4-----4-----------4--
E|--3-----------------3-----------------3-----------------3-----------------2-----------------2-----------------

E|-----------------------------------------------------------------------------------------------------0--------
B|-----------------------------------------------------------------------------------4--------------------------
G|-----------0-----------------0-----------------0-----------------0--------------4-----4-----------4-----4-----
D|--------0-----0-----------0-----0-----------0-----0-----------0-----0--------2-----------2-----2-----------2--
A|-----3-----------3-----3-----------3-----3-----------3-----3-----------0--4-----------------3-----------------
E|--1-----------------1-----------------0-----------------0-----------------------------------------------------

E|--------------------2-----------------------------------------------------------------------------------------
B|--------------2-----------------2-----------------4-----4-----------4-----------------------------------------
G|-----------3--------------3-----------------4-----4-----------4-----------------------------------------------
D|--------4--------4-----4-----4-----4-----4-----4-----4-----4-----4-----0--------------------------------------
A|-----4--------------4-----------------2-----------------0-----------------------------------------------------
E|--2-----------------------------------------------------------------------------------------------------------

E|--------2--------------2--------------2-----------0--------1--
B|--------0--------------0--------------0-----------2--------2--
G|--------0--------------0--------------0-----------2--------2--
D|--------2--2-----------1--1-----------0-----------2-----------
A|-----2--------------2--------------2-----------0-----------0--
E|--0--------------0--------------0-----------------------------

E|-----2--2-----2--2-----2--2-----2--------2--------------------------------------------0--------------1--------
B|-----3--3-----3--3-----3--3-----3--------2--2-----2--2-----2--2-----2--------0--------0--------2-----2--------
G|-----2--2-----2--2-----2--2-----2--------3--3-----3--3-----3--3-----3--------0--------0--------2-----2--------
D|--0-----------------0--------------------4--4-----4--4-----4--4-----4--------0-----------------2--------------
A|-----------0-----------------0-----0-----4-----4-----------------4-----------------2--------0--------0--------
E|--------------------------------------2--2--------------2--------------2--0-----------------------------------


E|-----2--2-----2--2-----2--2-----2--------2--------------------------------------------0-----------------------
B|-----3--3-----3--3-----3--3-----3--------2--2-----2--2-----2--2-----2--------0--------0--------2--------------
G|-----2--2-----2--2-----2--2-----2--------3--3-----3--3-----3--3-----3--------0--------0--------2--------------
D|--0-----------------0--------------------4--4-----4--4-----4--4-----4--------0-----------------2--------------
A|-----------0-----------------0-----0-----4-----4-----------------4-----------------2--------0-----------------
E|--------------------------------------2--2--------------2--------------2--0-----------------------------------

E|-----------------------------------------0--------------------------------------------
B|--------------------------------------------0-----------------------------------------
G|-----------4-----------------4-----------------4--------------------------4-----------
D|--------0-----0-----------0-----------------------0--------------------0-----0--------
A|-----4-----------4-----4-----------------------------4--------------4-----------4-----
E|--3-----------------3-----------------------------------3--------3-----------------3--

E|--------------------------------------------------------------------------------------------------------------
B|--------------------------------------------------------------------------------------------------------------
G|-----------4-----------------4-----------------2-----------------2-----------------2-----------------2--------
D|--------0-----0-----------0-----0-----------2-----2-----------2-----2-----------2-----2-----------2-----2-----
A|-----4-----------4-----4-----------4-----4-----------4-----4-----------4-----4-----------4-----4-----------4--
E|--3-----------------3-----------------3-----------------3-----------------2-----------------2-----------------

E|-----------------------------------------------------------------------------------------------------0--------
B|-----------------------------------------------------------------------------------4--------------------------
G|-----------0-----------------0-----------------0-----------------0--------------4-----4-----------4-----4-----
D|--------0-----0-----------0-----0-----------0-----0-----------0-----0--------2-----------2-----2-----------2--
A|-----3-----------3-----3-----------3-----3-----------3-----3-----------0--4-----------------3-----------------
E|--1-----------------1-----------------0-----------------0-----------------------------------------------------

E|--------------------2-----------------------------------------------------------------------------------------
B|--------------2-----------------2-----------------------------------------------------------------------------
G|-----------3--------------3-----------------------------------4-----------------4-----------------------------
D|--------4--------4-----4-----4-----4-----------------------0-----0-----------0-----0--------------------------
A|-----4--------------4-----------------------------------4-----------4-----4-----------4-----------------------
E|--2--------------------------------------------------3-----------------3-----------------3--------------------



tabs and chords, guitar tabs, music transcription, music technology, deep learning, music information retrieval, transcribe into tabs & chords, chordify, music renditions, songsterr, reverbnation, tabulature, bollywood chords, ultimate guitar, yousician, guitar lessons, acoustic guitar, electric guitar, guitar tuner, 911 tabs