Bass Tabs for Barão Vermelho - Eu Queria Ter Uma Bomba

BASS TAB
Barão Vermelho - Eu Queria Ter Uma Bomba

Intro
G|--------------------------
D|--------------------------
A|--7--5-----2--7--5-----2--
E|--------2-----------2-----

Verse
G|--------------------------------------------
D|--------------------------------------------
A|------------------------------5/7--5-----2--
E|--------------------------------------2-----

Chorus
G|--------------------------------------------------------------------------------------------
D|--------------------------------------------------------------------------------------------
A|--0--0--2--2--4--4--4--4--2-----0--0--2--2--0--0--2--2--0--0--------------------------0--0--
E|--------------------------------------------------------------4--4--2--2--2-----2--4--------

G|--------------------------------------------
D|--------------------------------------------
A|--2--2--0--0-----------------7-----7-----7--
E|--------------4--4--2--2--------------------

tabs and chords, guitar tabs, music transcription, music technology, deep learning, music information retrieval, transcribe into tabs & chords, chordify, music renditions, songsterr, reverbnation, tabulature, bollywood chords, ultimate guitar, yousician, guitar lessons, acoustic guitar, electric guitar, guitar tuner, 911 tabs