Guitar Tabs for Aye Mere Humsafar

(/) Slide Up  (\) Slide Down  (h) Hammer On  (p) Pull Off  (b) Bend (r) Release (v) Vibrato (x) Muted

Tabs & Chords
BPM : 98.0
Check Track 2 for Chord Positions 

    G                                            Gm                                           
E|--------------------------------------------------------------------------------------------
B|--------------------------------------------------------------------------------------------
G|--0--0--0-----0--------0--0-----------------------------------12-12-12-12----12-12-12-12----
D|--------------------------------------------------------12-------------------------------12-
A|-----------------------------------------------------------13-------------------------------
E|-----------3--------3-----------3--3--3--3--3--3--3--6--------------------------------------

          F              Gm                                                 F                    
E|--------20-20----20-20-20----------------------------------------------------------------------
B|--------------13-------------------15----------------------------------------------------------
G|--------------------------------0-----------12-12-12-12-12-12-12-------------------12----------
D|-----12----------------------------------12-------------------------12----15-15----------------
A|--------------------------------------------------------------------------------------------12-
E|--------------------------3--6--------------------------------------------------------13-------

                                     G                                   Gm                   
E|--------------20-20-20-20----------15-15-15-15-15----15----15----15-------------------------
B|-----------------------------15----------------------------------------15-------------------
G|--------------------------------------------------------------------------------------------
D|-----------------------------------------------------------------------------12-12-12-12-12-
A|--12-12-12-12-------------------------------------------------------------------------------
E|--------------------------------------------------------------------------------------------

                      
E|--------------------
B|--------------------
G|--------------------
D|--12-12-12-12-12-12-
A|--------------------
E|--------------------

Guitar Tabs for Aye Mere Humsafar






    G                                            Gm                                           
E|--3--------------------------------------------3--------------------------------------------
B|--3--------------------------------------------3--------------------------------------------
G|--4--------------------------------------------3--------------------------------------------
D|--5--------------------------------------------5--------------------------------------------
A|--5--------------------------------------------5--------------------------------------------
E|--3--------------------------------------------3--------------------------------------------

          F              Gm                                                 F                    
E|--------1--------------3--------------------------------------------------1--------------------
B|--------1--------------3--------------------------------------------------1--------------------
G|--------2--------------3--------------------------------------------------2--------------------
D|--------3--------------5--------------------------------------------------3--------------------
A|--------3--------------5--------------------------------------------------3--------------------
E|--------1--------------3--------------------------------------------------1--------------------

                                     G                                   Gm                   
E|-----------------------------------3-----------------------------------3--------------------
B|-----------------------------------3-----------------------------------3--------------------
G|-----------------------------------4-----------------------------------3--------------------
D|-----------------------------------5-----------------------------------5--------------------
A|-----------------------------------5-----------------------------------5--------------------
E|-----------------------------------3-----------------------------------3--------------------

                      
E|--------------------
B|--------------------
G|--------------------
D|--------------------
A|--------------------
E|--------------------

tabs and chords, guitar tabs, music transcription, music technology, deep learning, music information retrieval, transcribe into tabs & chords, chordify, music renditions, songsterr, reverbnation, tabulature, bollywood chords, ultimate guitar, yousician, guitar lessons, acoustic guitar, electric guitar, guitar tuner, 911 tabs