Guitar Tabs for Humsafar Full Guitar Tabs

(/) Slide Up  (\) Slide Down  (h) Hammer On  (p) Pull Off  (b) Bend (r) Release (v) Vibrato (x) Muted

Tabs for Song : HUMSAFAR - Badrinath Ki Dulhania

 sun mere humsafar                 kya tujhe itni si bhi khabar
E|--------------------------------------------------------------------------
B|--------------------------------------------------------------------------
G|--0-----0-----------------------------------0-----0--------2--------------
D|-----------4-----4-----0--2--------4--0--2-----------4-----------4--2-----
A|--------------------------------------------------------------------------
E|--------------------------------------------------------------------------
 tune..play 2 times
E|--------------------------------------------------------------------0--------------------------
B|--------0--1--0-----------------0--1--0--------------------------3-----1--0--------------------
G|--0--2-----------0--2-----0--2-----------0--2--------0--2-----------------------2--0--2--0-----
D|--------------------------------------------------4--------0-----------------------------------
A|-----------------------------------------------------------------------------------------------
E|-----------------------------------------------------------------------------------------------
 sun mere humsafar..                 kya tujhe itni si bhi khabar           ki   Ki teri saansein chalti jidhar           
E|--------------------------------------------------------------------------------------------------------------------
B|--------------------------------------------------------------------------------------------------------------------
G|--0-----0-----------------------------------0-----0--------2-----------------------0-----0--------------------------
D|-----------4-----4-----0--2--------4--0--2-----------4-----------4--2-----4--0--2-----------4-----4-----0--2--------
A|--------------------------------------------------------------------------------------------------------------------
E|--------------------------------------------------------------------------------------------------------------------
 rahunga bas wahi umrr bhar                   rahunga bas wahi umrr bhar,haaye
E|-----------------------------------------------------------------------------------------------
B|-----------------------------------------------------------------------------------------------
G|--------------------------------------------------------------------------2-----0--------------
D|--2--2--2--4-----4--4-----2--------0--------2--2--2--4-----4--4-----4--------------0--2--0-----
A|--------------------------------3--------------------------------------------------------------
E|-----------------------------------------------------------------------------------------------
 jitni haseen yeh mulakatein hain             unse bhi pyaari teri baatein hain         baaton mein teri kho jaatein hain    
E|--------------------------------------------------------------------------------------------------------------------------
B|--3--3--1--1--0--0--0--1--------3--3--------3--3--1--1--0--0--0--1--------0--0--------3--3--1--1--0--0--0--1--------3--3--
G|--------------------------2-----------------------------------------2-----------------------------------------2-----------
D|--------------------------------------------------------------------------------------------------------------------------
A|--------------------------------------------------------------------------------------------------------------------------
E|--------------------------------------------------------------------------------------------------------------------------
 aaun na hosh mein main kabhi                bahoon mein hain teri zindagi,hayee
E|-----------------------------------------------------------------------------------------------
B|-----------0--------0-----------0--0-----------------0--------0--------------------------------
G|--0--0--0--------2--------2-----------------0--0--0--------2--------2-----0--0-----------------
D|--------------------------------------------------------------------------------0--2--0--------
A|-----------------------------------------------------------------------------------------------
E|-----------------------------------------------------------------------------------------------
play 1st and 2nd line then continue..

    mai toh khada              kis soch mein padha tha    kaise jee raha tha main deewana    
E|-----------------------------------------------------------------------------------------
B|--0--------------------------0--------------------------0--------------------------------
G|-----2--2--0--0-----0--0--------2--2--0--0-----0--0--------2--2--0--0-----0--0--0--2-----
D|-----------------------------------------------------------------------------------------
A|-----------------------------------------------------------------------------------------
E|-----------------------------------------------------------------------------------------
   chup ke se aake tune       dil mein samaake tune      chhed diya kaisa yeh fasaana
E|-----------------------------------------------------------------0-----------------------
B|--0--------------------------0--------------------------3--3--3-----1--1-----1--0-----0--
G|-----2--2--0--0--0--------------2--2--0--0--0--------------------------------------2-----
D|--------------------0--2-----------------------0--2--------------------------------------
A|-----------------------------------------------------------------------------------------
E|-----------------------------------------------------------------------------------------
  repeat 5th and 6th line...then 3rd and 4th line
E|--
B|--
G|--
D|---
A|--
E|--

Song lyrics here
E|--
B|--
G|--
D|--
A|--
E|--

Paste any tab in acousterr's tab maker and we'll play it !!!
Now supports capo and sound effects for vibrato/pull-off/hammer/bends/mutes etc !!! Checkout help section
tabs and chords, guitar tabs, music contests, music covers, songsterr, reverbnation, renditions, tabulature, bollywood chords, ultimate guitar, yousician, guitar lessons, torrins, fender, gibson, acoustic guitar, electric guitar, youtube covers, gootar, guitar tuner, A-Z tabs, 911 tabs