Guitar Tabs for Humdard

Tabs for Song : Humdard

pal ..do.. pal ki kyon hai zindgi
E|--------------------------------------------------------------
B|--1--------------------------1--3-----1--3--------1--1--1-----
G|--------3-----2--2-----3--------------------3--3--------------
D|--------------------------------------------------------------
A|--------------------------------------------------------------
E|--------------------------------------------------------------

is pyaar ko hai sadiyan kaafi nahi
E|--------------------------------------------------------------
B|--1--1-----------------1-----3-----1--3--------1--1--1--1-----
G|-----------3--2--2--3--------------------3--3-----------------
D|--------------------------------------------------------------
A|--------------------------------------------------------------
E|--------------------------------------------------------------

to khuda se maang loon
E|-----0--0-----0--1--3--1--1-----
B|--------------------------------
G|--2-----------------------------
D|--------------------------------
A|--------------------------------
E|--------------------------------

mohallat mein ek nayi
E|--1--0--0--------------0-----------
B|-----------3--3--1--3-----3--3-----
G|-----------------------------------
D|-----------------------------------
A|-----------------------------------
E|-----------------------------------

rahna hai bas yahaan..
E|--1--------------------------
B|-----3--3--1--3--1-----------
G|--------------------3--3-----
D|-----------------------------
A|-----------------------------
E|-----------------------------

ab door tujhse jana nahi..
E|-----------------------------------------------------------
B|-----1-----------------1--1--------------------------------
G|--3-----3--3--2--2--0-----------3--2--3--2--0--2-----0-----
D|--------------------------------------------------3--------
A|-----------------------------------------------------------
E|-----------------------------------------------------------

jo tu mera humdard hai
E|-----------------------------------
B|-----------------------------------
G|-----------0--2-----0-----0--0-----
D|--3--2--3--------------3-----------
A|-----------------------------------
E|-----------------------------------

suhana har dard hai
E|--------------------------------
B|--------------------------------
G|-----------0--2-----0-----------
D|--3--2--3--------------3--3-----
A|--------------------------------
E|--------------------------------

jo tu mera humdard hai
E|-----------------------------------
B|-----------------------------------
G|-----------0--2-----0-----0--0-----
D|--3--2--3--------------3-----------
A|-----------------------------------
E|-----------------------------------

suhaana har dard hai
E|--------------------------------
B|--------------------------------
G|-----------0--2-----0-----------
D|--3--2--3--------------3--3-----
A|--------------------------------
E|--------------------------------

teri muskurahate hai taakat meri
E|--------------------------------------------------
B|--------1--3--3--3--3--3--3-----------1--1--1-----
G|--2--3-----------------------0--2--3--------------
D|--------------------------------------------------
A|--------------------------------------------------
E|--------------------------------------------------

mujhko inhi se umeed mili
E|--------------------------------------------
B|-----------1--1--1--1--1--1-----------------
G|--0--2--3--------------------3--3--2--2-----
D|--------------------------------------------
A|--------------------------------------------
E|--------------------------------------------

chaahe kare koi sitam ye jahaan
E|-----------------------3--3--1--1--0--0-----
B|--------1--3--3--3--3-----------------------
G|--2--3--------------------------------------
D|--------------------------------------------
A|--------------------------------------------
E|--------------------------------------------

inme hi sadaa hifaajat meri 
E|--------------------------------------------
B|-----------1--1--1--1--1--1-----------------
G|--0--2--3--------------------3--3--2--2-----
D|--------------------------------------------
A|--------------------------------------------
E|--------------------------------------------

jindgaani badi khoobsurat hui
E|-----3--3--1--1--0--0--------1--1--0--0--------
B|-----------------------3--3--------------3-----
G|--2--------------------------------------------
D|-----------------------------------------------
A|-----------------------------------------------
E|-----------------------------------------------

jannat ab aur kya hogi kahin
E|--1--1--0--0-----------------------------
B|--------------3--3--1--------1-----------
G|-----------------------3--------3--2-----
D|-----------------------------------------
A|-----------------------------------------
E|-----------------------------------------

jo tu mera humdard hai 
E|-----------------------------------
B|-----------------------------------
G|-----------0--2-----0-----0--0-----
D|--3--2--3--------------3-----------
A|-----------------------------------
E|-----------------------------------

jo tu mera humdard hai
E|--------------------------------
B|--------------------------------
G|-----------0--2-----0-----0--0--
D|--3--2--3--------------3--------
A|--------------------------------
E|--------------------------------


tabs and chords, guitar tabs, music transcription, music technology, deep learning, music information retrieval, transcribe into tabs & chords, chordify, music renditions, songsterr, reverbnation, tabulature, bollywood chords, ultimate guitar, yousician, guitar lessons, acoustic guitar, electric guitar, guitar tuner, 911 tabs