Guitar Tabs for Https://youtu.be/s81w-md8uly

(/) Slide Up  (\) Slide Down  (h) Hammer On  (p) Pull Off  (b) Bend (r) Release (v) Vibrato (x) Muted

Tabs & Chords
BPM : 144.0
Check Track 2 for Chord Positions 

    A           D     A           A                                               D           
E|--------0-----------------------------------------------------------------------------------
B|--------------0-----------------0-----------------2--2--0-----------------------0--2--------
G|-----------------------------------------------------------2--2--2-----2--2--------------2--
D|--------------------------------------------------------------------------------------------
A|--2-----------------2-----0-----------0-----0-----------------------------------------------
E|--------------------------------------------------------------------------------------------

       F#m            
E|--------------------
B|--------------2--2--
G|-----2--2-----------
D|--------------------
A|--------------------
E|--------------------

Guitar Tabs for Https://youtu.be/s81w-md8uly






    A           D     A           A                                               D           
E|--0-----------2-----0-----------0-----------------------------------------------2-----------
B|--2-----------3-----2-----------2-----------------------------------------------3-----------
G|--2-----------2-----2-----------2-----------------------------------------------2-----------
D|--2-----------0-----2-----------2-----------------------------------------------0-----------
A|--0-----------------0-----------0-----------------------------------------------------------
E|--------------------------------------------------------------------------------------------

       F#m            
E|-----2--------------
B|-----2--------------
G|-----2--------------
D|-----4--------------
A|-----4--------------
E|-----2--------------

tabs and chords, guitar tabs, music transcription, music technology, deep learning, music information retrieval, transcribe into tabs & chords, chordify, music renditions, songsterr, reverbnation, tabulature, bollywood chords, ultimate guitar, yousician, guitar lessons, acoustic guitar, electric guitar, guitar tuner, 911 tabs