Guitar Tabs for Https://youtu.be/php4ppdnu7m

(/) Slide Up  (\) Slide Down  (h) Hammer On  (p) Pull Off  (b) Bend (r) Release (v) Vibrato (x) Muted

Tabs & Chords
BPM : 117.0
Check Track 2 for Chord Positions 

    F#                                                                                        
E|--------------------------------------------------------------------------------------------
B|-----11-------9--11-------------------9--11----------9--11----------------9-----------9--11-
G|--------11-11-------11-11-11-10-8--------------11----------11-11----8-----------11-11-------
D|-----------------------------------11----------------------------11-------------------------
A|--------------------------------------------------------------------------------------------
E|--2-----------------------------------------------------------------------------------------

                                                                                                 
E|-----------------------------------------------------------------------------------------------
B|-----------------------0--0--0-----9-----------9--11----9--11----------9--------------------9--
G|--11-11-11-10-8-----------------------11-11-11----------------11-11----------11-11-11----------
D|-----------------11-------------8-----------------------------------------------------11-------
A|-----------------------------------------------------------------------------------------------
E|-----------------------------------------------------------------------------------------------

                                                                                              
E|--------------------------------------------------------------------------------------------
B|--11----------9-----------------------------0-----------------------------------------0--0--
G|-----11-11----------11----11-11-10-8-----------------11-0--------8--10-10-10-8-----8--------
D|-----------------------0--------------11----------11----------11----------------11----------
A|--------------------------------------------------------------------------------------------
E|--------------------------------------------------------------------------------------------

                                        B           D#m      
E|-----------------------------------------------------------
B|-----------------------------------------------------------
G|--------8--8--8--------10-8--------------------------8--8--
D|--8--------------11-11-------11-8-----------------8--------
A|-----------------------------------11-9--11-11-------------
E|-----------------------------------------------------------

Guitar Tabs for Https://youtu.be/php4ppdnu7m






    F#                                                                                        
E|--2-----------------------------------------------------------------------------------------
B|--2-----------------------------------------------------------------------------------------
G|--3-----------------------------------------------------------------------------------------
D|--4-----------------------------------------------------------------------------------------
A|--4-----------------------------------------------------------------------------------------
E|--2-----------------------------------------------------------------------------------------

                                                                                                 
E|-----------------------------------------------------------------------------------------------
B|-----------------------------------------------------------------------------------------------
G|-----------------------------------------------------------------------------------------------
D|-----------------------------------------------------------------------------------------------
A|-----------------------------------------------------------------------------------------------
E|-----------------------------------------------------------------------------------------------

                                                                                              
E|--------------------------------------------------------------------------------------------
B|--------------------------------------------------------------------------------------------
G|--------------------------------------------------------------------------------------------
D|--------------------------------------------------------------------------------------------
A|--------------------------------------------------------------------------------------------
E|--------------------------------------------------------------------------------------------

                                        B           D#m      
E|--------------------------------------2-----------6--------
B|--------------------------------------4-----------7--------
G|--------------------------------------4-----------8--------
D|--------------------------------------4-----------8--------
A|--------------------------------------2-----------6--------
E|-----------------------------------------------------------

tabs and chords, guitar tabs, music transcription, music technology, deep learning, music information retrieval, transcribe into tabs & chords, chordify, music renditions, songsterr, reverbnation, tabulature, bollywood chords, ultimate guitar, yousician, guitar lessons, acoustic guitar, electric guitar, guitar tuner, 911 tabs