Guitar Tabs for Https://youtu.be/iwr6uieoxce

(/) Slide Up  (\) Slide Down  (h) Hammer On  (p) Pull Off  (b) Bend (r) Release (v) Vibrato (x) Muted

Tabs & Chords
BPM : 156.0
Check Track 2 for Chord Positions 

    B           F#                                  G#m                     F#                B  
E|-----------------------------------------------------------------------------------------------
B|--11----------12----------------------------------------------------------------------11----12-
G|--------11----------13----11----------------------------------11-------------------------------
D|--------------------------------------------13----11----13----------11----11-------------------
A|--------------------------------13----13----------------------------------------13-------------
E|-----------------------------------------------------------------------------------------------

                         F#                            G#m                        F#             
E|-----------------11----11----11----------------------------------------------------------------
B|-----12----14----------------------14----14----12----11-12-------------------------------------
G|--------------------------------------------------------------13----11----11----13----11-------
D|--------------------------------------------------------------------------------------------13-
A|-----------------------------------------------------------------------------------------------
E|-----------------------------------------------------------------------------------------------

                                                 B  F#          
E|--0-----------0--------------------0--------------------------
B|--------------------------------------------------0-----0-----
G|--------------------------------------------------------------
D|-----------13-------11----------13----13-11----------------11-
A|-----13-------------------13-------------------13-------------
E|--------------------------------------------------------------

Guitar Tabs for Https://youtu.be/iwr6uieoxce






    B           F#                                  G#m                     F#                B  
E|--2-----------2-----------------------------------4-----------------------2-----------------2--
B|--4-----------2-----------------------------------4-----------------------2-----------------4--
G|--4-----------3-----------------------------------4-----------------------3-----------------4--
D|--4-----------4-----------------------------------6-----------------------4-----------------4--
A|--2-----------4-----------------------------------6-----------------------4-----------------2--
E|--------------2-----------------------------------4-----------------------2--------------------

                         F#                            G#m                        F#             
E|-----------------------2-----------------------------4--------------------------2--------------
B|-----------------------2-----------------------------4--------------------------2--------------
G|-----------------------3-----------------------------4--------------------------3--------------
D|-----------------------4-----------------------------6--------------------------4--------------
A|-----------------------4-----------------------------6--------------------------4--------------
E|-----------------------2-----------------------------4--------------------------2--------------

                                                 B  F#          
E|-----------------------------------------------2--2-----------
B|-----------------------------------------------4--2-----------
G|-----------------------------------------------4--3-----------
D|-----------------------------------------------4--4-----------
A|-----------------------------------------------2--4-----------
E|--------------------------------------------------2-----------

tabs and chords, guitar tabs, music transcription, music technology, deep learning, music information retrieval, transcribe into tabs & chords, chordify, music renditions, songsterr, reverbnation, tabulature, bollywood chords, ultimate guitar, yousician, guitar lessons, acoustic guitar, electric guitar, guitar tuner, 911 tabs