Ukulele Tabs for Hotel California Ukulele Intro

A|-----------------2--------2--------------------------1-----4-----------------
E|-----------2-----------2--------------------------2--------------2-----------
C|--------2-----------------------2-----4-----1-----------------------1--------
G|--4--------------------------------------------------------------------------


A|-----------------2-----0-----------0-----------0-----------------2--------2-----
E|-----------0--------------0-----------------0-----4--------4-----------4--------
C|--------1-----------------------1-----4-----------------4-----------------------
G|--2-----------------------------------------------------------------------------


A|-----------------2--------2-----------------------
E|-----------3-----------3-----------3--------3-----
C|--------2-----------------------2------2h4--------
G|--0-----------------------------------------------


A|-----------------5-----------------------------------
E|-----------2--------------2--------2-----------2-----
C|--------2--------------2--------4-----2-----4--------
G|--2--------------------------------------------------


A|-----------------2-----------------------------------
E|--3--------3--------------3-----0--3--------0--3-----
C|--------4--------------4--------------4--------------
G|-----------------------------------------------------


A|-----------1--------------4--------2-----
E|--------2--------2-----------------2-----
C|--1--------------------1-----------2-----
G|-----------------------------------4-----
tabs and chords, guitar tabs, music transcription, music technology, deep learning, music information retrieval, transcribe into tabs & chords, chordify, music renditions, songsterr, reverbnation, tabulature, bollywood chords, ultimate guitar, yousician, guitar lessons, acoustic guitar, electric guitar, guitar tuner, 911 tabs