Guitar Tabs for Hotel California

(h) Hammer On.   This is just the notes not timing so listen to the song for the timing

Tabs for Song : Hotel California
BPM : 220   Capo : 7

E|-----------------------0--------------------------2-----------------------------
B|--------------0-----------------------------0-----------0-----------------------
G|--------0-----------0--------0--2--------2-----------2--------------------------
D|-----------2-----2--------------------1--------------------1--------------------
A|-----2-----------------------------------------2--------------------------------
E|--0-----------------------------------------------------------------------------

E|-----------------0--------------------------------------------0-----------------
B|-----------3--------3--------3--------0--------------0-----0--------------------
G|--------2-----------------2--------2-----------0--------0-----------------------
D|-----0--------0--------0--------------------2-----2-----------------------------
A|--------------------------------0--------4--------------------------------------
E|--------------------------------------------------------------------------------

E|--------------------0-----------------------3--------3-----------3--------------
B|--------------1--------------------------------0-----------0--------0--------0--
G|--------0--------0--------0--------0--------------0-----------------------------
D|-----2-----2------------------0h2--------0--------------0-----------------0-----
A|--3--------------------3--------------------------------------2-----------------
E|-----------------------------------------------------------------------3--------


E|-----0-----------------0-----------------------------------------0--------------
B|--------------1-----1-----------------0-----------------0-----------------------
G|--------0--------------------0--------------------2--2--------2-----------------
D|-----------2-----2--------2--------2-----------1-----------1--------------------
A|--0-----------------------------------------2-----------------------------------
E|--------------------------------0-----------------------------------------------











tabs and chords, guitar tabs, music transcription, music technology, deep learning, music information retrieval, transcribe into tabs & chords, chordify, music renditions, songsterr, reverbnation, tabulature, bollywood chords, ultimate guitar, yousician, guitar lessons, acoustic guitar, electric guitar, guitar tuner, 911 tabs