Guitar Tabs for Hotel California

(/) Slide Up  (\) Slide Down  (h) Hammer On  (p) Pull Off  (b) Bend (r) Release (v) Vibrato (x) Muted

Tabs for Song : 
BPM : 200

Song lyrics here
E|-----------------------------x--------------------------------x-----------------------x-----------------------x--
B|--------10-12/15-10h12-------x--------7-----------------------x--------7--------------x--------7--------------x--
G|---9/11----------------11\9--x---7h9-----7------4h-7p4--------x---7h9-----7-----------x---7h9-----7-----------x--
D|-----------------------------x--------------8------------7/8--x--------------9--8--9--x--------------9--8--9--x--
A|-----------------------------x--------------------------------x-----------------------x-----------------------x--
E|-----------------------------x--------------------------------x-----------------------x-----------------------x--

E|--------10-------------------x--7-----10/12-10-12p10----------10-------------------------------------------------------
B|--10b12----12b10-7--10--8b9--x-----7-----------------12-----------------------------------7b8---7b8---7b-8b7-----------
G|-----------------------------x---------------------------9/11----11\9--7---7\6--7---7/9-----------------------9--7--9--
D|-----------------------------x-----------------------------------------------------------------------------------------
A|-----------------------------x-----------------------------------------------------------------------------------------
E|-----------------------------x-----------------------------------------------------------------------------------------

E|-----------------------7--------------------------------------------7-----------7-----------7--------------------------
B|--------7--10-------7--------------------------------7--10-------7-----------7-----------7-----------------------------
G|---9b11--------9b11--------9/11-11/-9p7---9\11--9b11--------9b11--------9b11--------9b11--------9/11--9p7--9--7---9/11-
D|-----------------------------------------------------------------------------------------------------------------------
A|-----------------------------------------------------------------------------------------------------------------------
E|-----------------------------------------------------------------------------------------------------------------------

E|--------------------------7--------------10-------------
B|--10----------------10b12----10p7--10/12----12-11-10-9--
G|------9h11--7b8-----------------------------------------
D|-----------------9--------------------------------------
A|--------------------------------------------------------
E|--------------------------------------------------------

E|--------------------------17----------------------15-16-17b19-------------
B|--------12-15/17-15-17b19----19b17-15-17-15-17b19-------------19b17-15-17-
G|--14b16-------------------------------------------------------------------
D|--------------------------------------------------------------------------
A|--------------------------------------------------------------------------
E|--------------------------------------------------------------------------

E|--------------------------17----------------------15-16-17b19-------------17-17----------------------
B|--------12-15/17-15-17b19----19b17-15-17-15-17b19-------------17-15-17b19-------17b19-17b19-19b17-15-
G|--14/16----------------------------------------------------------------------------------------------
D|-----------------------------------------------------------------------------------------------------
A|-----------------------------------------------------------------------------------------------------
E|-----------------------------------------------------------------------------------------------------

E|--------17-17-------------------------17/19-
B|--17b19-------17b19-17b19-17b19b17-15-------
G|--------------------------------------------
D|--------------------------------------------
A|--------------------------------------------
E|--------------------------------------------

E|-----10----10----------------------x--12b14b12-12p10----12-10----------------------------------7-----------------
B|--12----12--------------------9/11-x-----------------12-------12--8/10----------------10----------7--10----7-----
G|--------------11\-9p7--------------x-----------------------------------11/-9p7---9/11-----9b11----------9-----7--
D|-----------------------9--8--------x-----------------------------------------------------------------------------
A|-----------------------------------x-----------------------------------------------------------------------------
E|-----------------------------------x-----------------------------------------------------------------------------

E|-----------------------------------------------------------x-----------------------------9--x--
B|-----------------------------------10b12-10p7--------------x-----------7---7b-8b7--11-12----x--
G|--9-----7---------------------------------------9/11/9--7--x--7--9--9-----------------------x--
D|-----9--------7-----------------7--------------------------x--------------------------------x--
A|-----------9-----9--7--5---7/9-----------------------------x--------------------------------x--
E|-----------------------------------------------------------x--------------------------------x--

E|--14-10----x--12-9-----12-9-----12-9--12/18-x--12-9-----x--10-7-----10-7-----10-7--10/16-x--10-7-----x--
B|--------12)x--------11-------11-------------x--------10)x--------9--------9--------------x--------(8)x--
G|-----------x--------------------------------x-----------x--------------------------------x-----------x--
D|-----------x--------------------------------x-----------x--------------------------------x-----------x--
A|-----------x--------------------------------x-----------x--------------------------------x-----------x--
E|-----------x--------------------------------x-----------x--------------------------------x-----------x--

E|--10-------10-------10----10/14-x--7--------x--7--3-----x--9--6-----9--6-----9--6---9/14-
B|-----10-7-----10-7-----10-------x-----8-----x--------(5)x--------7--------7--------------
G|--------------------------------x--------(9)x-----------x--------------------------------
D|--------------------------------x-----------x-----------x--------------------------------
A|--------------------------------x-----------x-----------x--------------------------------
E|--------------------------------x-----------x-----------x--------------------------------











Song lyrics here
E|--
B|--
G|--
D|--
A|--
E|--

Paste any tab in acousterr's tab maker and we'll play it !!!
Now supports capo and sound effects for vibrato/pull-off/hammer/bends/mutes etc !!! Checkout help section
tabs and chords, guitar tabs, music transcription, music technology, deep learning, music information retrieval, transcribe into tabs & chords, chordify, music renditions, songsterr, reverbnation, tabulature, bollywood chords, ultimate guitar, yousician, guitar lessons, acoustic guitar, electric guitar, guitar tuner, 911 tabs