Guitar Tabs for Honestly Idk

(/) Slide Up  (\) Slide Down  (h) Hammer On  (p) Pull Off  (b) Bend (r) Release (v) Vibrato (x) Muted

Tabs for Song : 



Song lyrics here

E|--------------------------------------------------------------------------------------------------------------
B|--------------------------------------------------------------------------------------------------------------
G|--------------------------------------------------------------------------------------------------------------
D|--------------------------------------------------------------------------------------------------------------
A|-----4--4--4--4--4--4--5--4-----4--4--4--4--4--4--7--5-----4--4--4--4--4--4--5--4--5--4-----4--5--5--4-----4--
E|--5--------------------------5--------------------------5--------------------------------5--------------5-----

Song lyrics her

E|--------------------------------------------------------------------------------
B|--------------------------------------------------------------------------------
G|--------------------------------------------------------------------------------
D|--------------------------------------------------------------------------------
A|--------------------------------------------------------------------------------
E|--2--5--5--5--5--5--5--7--5--2--5--5--5--5--5--5--7--5--2--5--5--5--5--5--5--7--

Song lyrics her

E|--------------------------------
B|--------------------------------
G|--------------------------------
D|--------------------------------
A|--4--5--4-----4--5--5--4-----4--
E|-----------5--------------5-----

E|--
B|--
G|--
D|--
A|--
E|--

Paste any tab in acousterr's tab maker and we'll play it !!!
Now supports capo and sound effects for vibrato/pull-off/hammer/bends/mutes etc !!! Checkout help section
tabs and chords, guitar tabs, music transcription, music technology, deep learning, music information retrieval, transcribe into tabs & chords, chordify, music renditions, songsterr, reverbnation, tabulature, bollywood chords, ultimate guitar, yousician, guitar lessons, acoustic guitar, electric guitar, guitar tuner, 911 tabs