Guitar Tabs for Idk

(/) Slide Up  (\) Slide Down  (h) Hammer On  (p) Pull Off  (b) Bend (r) Release (v) Vibrato (x) Muted


BPM : 170

E|--------------------------------------------------------------------------------------------------
B|-----------------------------------------------------12p0--------12p0--------12p0--------12p0-----
G|--------------------------------------------------------------------------------------------------
D|--------------------------------------------------12----12p0--12----12p0--12----12p0--12----12p0--
A|--7---------------2---------------7----9----------2-----------------------------------------------
E|--8---------------3---------------8------10-------3-----------------------------------------------
 
E|------------------------------------------------------------------------------------------12------
B|-----12p0--------12p0--------12p0--------12p0--------12p0---------------------------------12------
G|--------------------------------------------------------------12-12\11-11\9---------------12------
D|--12----12p0--12----12p0--12----12p0--12----12p0--12----12p0------------------9/12-12-----12------
A|--7-----------------------------------------------2-----------------------------------------------
E|--8-----------------------------------------------3-----------------------------------------------

E|-----------------------15----------------------14----------------------15p0--------15p0-----------
B|--------------12p0--------------------12p0--------------------12p0-----------15p0--------12/13\12-
G|--------4--------------12-------2--------------11----------------------12p0--------12p0-----------
D|-----5-----12----12p0--------4-----12----12p0-----------5--12----12p0--------12p4-----------------
A|--7-----------------------5--------------------------7-----------------------5--------------------
E|--------------------------------------------------8-----------------------7-----------------------

E|-----------------------15----------------------14----------------------15p0--------15p0-----------
B|--------------12p0--------------------12p0--------------------12p0-----------15p0--------12/13\12-
G|--------4--------------12-------2--------------11----------------------12p0--------12p0-----------
D|-----5-----12----12p0--------4-----12----12p0-----------5--12----12p0--------12p4-----------------
A|--7-----------------------5--------------------------7-----------------------5--------------------
E|--------------------------------------------------8-----------------------7-----------------------

E|-----------------------15----------------------14----------------------15p0--------15p0-----------
B|--------------12p0--------------------12p0--------------------12p0-----------15p0--------12/13\12-
G|--------4--------------12-------2--------------11----------------------12p0--------12p0-----------
D|-----5-----12----12p0--------4-----12----12p0-----------5--12----12p0--------12p4-----------------
A|--7-----------------------5--------------------------7-----------------------5--------------------
E|--------------------------------------------------8-----------------------7-----------------------

E|-----------------------15----------------------14----------------------15p0-----------------------
B|--------------12p0--------------------12p0--------------------12p0-----------------12\8--8--------
G|--------4--------------12-------2--------------11----------------------12p0-----------------------
D|-----5-----12----12p0--------4-----12----12p0-----------5--12----12p0-----------4--12\9--9--------
A|--7-----------------------5--------------------------7-----------------------5--------------------
E|--------------------------------------------------8-----------------------7-----------------------

tabs and chords, guitar tabs, music transcription, music technology, deep learning, music information retrieval, transcribe into tabs & chords, chordify, music renditions, songsterr, reverbnation, tabulature, bollywood chords, ultimate guitar, yousician, guitar lessons, acoustic guitar, electric guitar, guitar tuner, 911 tabs