Guitar Tabs for Idk



Song lyrics here
E|-----------------------------------------------------------------------------------------------------------------------
B|-----------3-----------------------------------------------------3-----------------3-----------------------------------
G|--------4-----4--------------2-----------------2--------------4-----4------------4-----4--------------2-----------------
D|-----4-----------4--------4-----4-----------2-----2--------4-----------4-----4-----------4--------4-----4-----------2---
A|--2--------------------4-----------4-----4-----------4--2-----------------2--------------------4-----------4-----4------
E|--------------------2-----------------5-----------------------------------------------------2-----------------5--------

Song lyrics her

Paste any tab in acousterr's tab maker and we'll play it !!!
Now supports capo and sound effects for vibrato/pull-off/hammer/bends/mutes etc !!! Checkout help section

E|-----------------------
B|--------------------3--
G|--2--------------4-----
D|-----2--------4--------
A|--------4--2-----------
E|-----------------------
tabs and chords, guitar tabs, music transcription, music technology, deep learning, music information retrieval, transcribe into tabs & chords, chordify, music renditions, songsterr, reverbnation, tabulature, bollywood chords, ultimate guitar, yousician, guitar lessons, acoustic guitar, electric guitar, guitar tuner, 911 tabs