Guitar Tabs for Hero Enrique Intro & Solo

(/) Slide Up  (\) Slide Down  (h) Hammer On  (p) Pull Off  (b) Bend (r) Release (v) Vibrato (x) Muted

Tabs for Song : Hero - Enrique (Intro & Solo tabs)

Intro (Just play G & Cadd9 here)
E|-----------3-----------------------3-----------------------3-----------------------3--------------
B|-----------------3-----------------------3-----------------------3-----------------------3--------
G|--------0--------------0--------0--------------0--------0--------------0--------0--------------0--
D|--------------------------------------------------------------------------------------------------
A|--------------------------------------------------3-----------------------3-----------------------
E|--3-----------------------3-----------------------------------------------------------------------

Dsus4 & back to G
E|-----------3-----------------------3-----------------------3--------------
B|-----------------3-----------------------3-----------------------3--------
G|--------2--------------2--------2--------------2--------0--------------0--
D|--0-----------------------0-----------------------------------------------
A|--------------------------------------------------------------------------
E|--------------------------------------------------3-----------------------

solo..
E|-----------------------------------------------------------------
B|-----------------------------------------------------7-----------
G|------------------------------------5/7-----7--7-----------7--7--
D|-----5--5--5------7/9-----9--------------------------------------
A|-----------------------------------------------------------------
E|-----------------------------------------------------------------

E|--------------------------------------------------------
B|-----7-----8--7-----------------------------------------
G|-----7--------------7-----------------------------------
D|---------------------------7/9-----7---------7h-9p7-----
A|-----------------------------------------------------10-
E|--------------------------------------------------------

Now supports capo and sound effects for vibrato/pull-off/hammer/bends/mutes etc !!! Checkout help section
tabs and chords, guitar tabs, music transcription, music technology, deep learning, music information retrieval, transcribe into tabs & chords, chordify, music renditions, songsterr, reverbnation, tabulature, bollywood chords, ultimate guitar, yousician, guitar lessons, acoustic guitar, electric guitar, guitar tuner, 911 tabs