Guitar Tabs for My Hero

[Intro]

(Guitar 1)  
e|--------------0---0---0-------------|
B|------------0---0---0---0-----------|
G|--8-9-8-----------------------------|
D|--------9---------------------------|
A|------------------------------------|
E|------------------------------------|(x6)

(Guitar 2)
e|---------------------------------------------------|---------------------------|
B|---------------------------------------------------|---------------------------|
G|------------6-6-6-6--------------------------------|---------------------------|
D|--2-2-2-2---6-6-6-6----(x4)------------------------|---------------------------|
A|--2-2-2-2---4-4-4-4--------------------------------|------4-2------------------|
E|--0-0-0-0------------------------------------------|--2-2-----4-5--------------|

[Verse 1, 2]

(Guitar 1)
e|-------------------------------------------------|
B|-------------------------------------------------|
G|-8-9-9-9-9-9-9-8-8-11-8-8-11-8-8-9---------------|
D|-------------------------------------------------|
A|-------------------------------------------------|
E|-------------------------------------------------|(x8)

(Guitar 2)
e|-----------------------|
B|-----------------------|
G|------------6-6-6-6----|
D|--2-2-2-2---6-6-6-6----|
A|--2-2-2-2---4-4-4-4----|
E|--0-0-0-0--------------|(x8)


[Chorus]

(guitar 1)
e|------------------------------------------------------------------------------------------------------|
B|------------------------------------------------------------------------------------------------------|
G|---------8-8-8--9-9-9--11-11-11---------8-8-8--9-9-9--6-6-6---------8-8-8--9-9-9--11-11-11------------|
D|--7-7-7--x-x-x--x-x-x--x--x--x---7-7-7--x-x-x--x-x-x--x-x-x--2-2-2--x-x-x--x-x-x--x--x--x-------------|
A|--7-7-7--6-6-6--7-7-7--9--9--9---7-7-7--7-7-7--6-6-6--7-7-7--4-4-4--2-2-2--6-6-6--7--7--7---9--9--9---|
E|--5-5-5--------------------------5-5-5-----------------------0-0-0------------------------------------|

e|--------------------------------------------|--------------------------------------|
B|--------------------------------------------|--------------------------------------|
G|--------11-11-11--13-13-13--8-8-8-----------|----------------------8-9-8-----------|
D|-2-2-2--x--x--x---x--x--x---x-x-x-(x2)------|----------------------------9b--------|
A|-2-2-2--9--9--9---11-11-11--6-6-6-----------|------4-2-----------------------------|
E|-0-0-0--------------------------------------|--2-2-----4-5-------------------------|










tabs and chords, guitar tabs, music transcription, music technology, deep learning, music information retrieval, transcribe into tabs & chords, chordify, music renditions, songsterr, reverbnation, tabulature, bollywood chords, ultimate guitar, yousician, guitar lessons, acoustic guitar, electric guitar, guitar tuner, 911 tabs