Guitar Tabs for Hero - Enrique Iglesias Tabs

(/) Slide Up  (\) Slide Down  (h) Hammer On  (p) Pull Off  (b) Bend (r) Release (v) Vibrato

Tabs for Song : Hero

Would you dance if I asked you to dance? Would you cry if you saw me crying?
E|--------------------------------------------------------------
B|--------------------------------------------------------------
G|--4--4--4-----4--4--4-----------5--5--5-----5--5--5--4--------
D|-----------------------7--5--5--------------------------7--7--
A|--------------------------------------------------------------
E|--------------------------------------------------------------

Or would you run and never look back? And would you save my soul tonight?
E|--------------------------------------------------------
B|--------------------------------------------------------
G|--4--4--4-----4--4--4--------------5--5--5--4-----------
D|-----------------------7--5--7--5--------------7--5--5--
A|--------------------------------------------------------
E|--------------------------------------------------------

Would you tremble if I touched your lips? Or would you laugh? Oh, please tell me this
E|--------------------------------------------------------------
B|--------------------------------------------------------------
G|--4--4--4-----4--4--4-----------5--5--5-----5--5--5--4--------
D|-----------------------7--5--5--------------------------7--7--
A|--------------------------------------------------------------
E|--------------------------------------------------------------

Now would you die for the one you love? Oh hold me in your arms tonight
E|--------------------------------------------------
B|--------------------------------------------------
G|--------7--4---------4/7--4--5--5--5--4-----------
D|--5--5--------5--5-----------------------7--5--5--
A|--------------------------------------------------
E|--------------------------------------------------

I can be your hero baby I can kiss away the pain
E|-----------------------------------------------------
B|-----------------------------------------------------
G|--7--9--9--9-----7--9--9--9--7--9--9--9-----7--9--9--
D|-----------------------------------------------------
A|-----------------------------------------------------
E|-----------------------------------------------------

I will stand by you forever You can take my breath away
E|--------------------------------------------------
B|--------------------------------------------------
G|--7--9--9--9-----7--9--9--9--7--7--7--4--5--4-----
D|-----------------------------------------------5--
A|--------------------------------------------------
E|--------------------------------------------------

Again Repeat Part 1...
tabs and chords, guitar tabs, music contests, music covers, songsterr, reverbnation, renditions, tabulature, bollywood chords, ultimate guitar, yousician, guitar lessons, torrins, fender, gibson, acoustic guitar, electric guitar, youtube covers, gootar, guitar tuner, A-Z tabs, 911 tabs