Guitar Tabs for Hanuman Chalisa

Shri Guru Charan Sarooja-raj Nija manu Mukura Sudhaari
E|--------------------------------------------------------------------------------
B|---2/5--5--5--7--7--7---7/9--9--9--9------9/12-12-12\10-10-9---9\7--5--5--5-----
G|--------------------------------------------------------------------------------
D|--------------------------------------------------------------------------------
A|--------------------------------------------------------------------------------
E|--------------------------------------------------------------------------------

Baranau Rahubhara Bimala Yasha Jo Dayaka Phala Chari
E|-----------------------------------------------------------------------------------
B|---2/5--5--5--7--7--7---7/9--9--9--9------9/12-12-12\10-10-10\9--9---7\5--5--5-----
G|-----------------------------------------------------------------------------------
D|-----------------------------------------------------------------------------------
A|-----------------------------------------------------------------------------------
E|-----------------------------------------------------------------------------------

Budhee-Heen Thanu Jannikay
E|---5/7--7---5p4-----5------5/7--5--7--
B|-----------------7-----7--------------
G|--------------------------------------
D|--------------------------------------
A|--------------------------------------
E|--------------------------------------

Sumirow Pavana Kumara
E|---5/7--7--7--9--7--9--9---9/10--9h10p9--------
B|-----------------------------------------12----
G|-----------------------------------------------
D|-----------------------------------------------
A|-----------------------------------------------
E|-----------------------------------------------


Bala-Budhee Vidya Dehoo Mohee 
E|---9/12-12-12\10-10\9---9\7---7/9---7\5---4h-5p4--------
B|--------------------------------------------------7-----
G|--------------------------------------------------------
D|--------------------------------------------------------
A|--------------------------------------------------------
E|--------------------------------------------------------

Harahu Kalesha Vikaara
E|---5/7--7--7---4h-5p4--------------
B|-----------------------7--5--5-----
G|-----------------------------------
D|-----------------------------------
A|-----------------------------------
E|-----------------------------------

Jai Hanuman gyan gun sagar
E|--------------------------9-----------------------
B|---3/5--7--7---7/12-12-12----12-10--9h10p9--------
G|--------------------------------------------11----
D|--------------------------------------------------
A|--------------------------------------------------
E|--------------------------------------------------

Jai Kapis tihun lok ujagar
E|--------------------------------------------------
B|---9/12-10--9\7--7--5-----------7--7---7/9--5-----
G|-----------------------6--6-----------------------
D|--------------------------------------------------
A|--------------------------------------------------
E|--------------------------------------------------

Ram doot atulit bal dhama
E|--------------------------9-----------------------
B|---3/5--7--7---7/12-12-12----12-10--9h10p9--------
G|--------------------------------------------11----
D|--------------------------------------------------
A|--------------------------------------------------
E|--------------------------------------------------

Anjaani-putra Pavan sut nama
E|--------------------------------------------------
B|---9/12-10-9---7/9--5--5-----------7--7---7/9--5--
G|--------------------------6--6--------------------
D|--------------------------------------------------
A|--------------------------------------------------
E|--------------------------------------------------

E|--------7--9--10/12----9--7--------------7--7--
B|---7/9-----------------------10----9--7--------
G|-----------------------------------------------
D|-----------------------------------------------
A|-----------------------------------------------
E|-----------------------------------------------


Mahabir Bikram Bajrangi
E|--------------------------------------------------------------------
B|---7/10--9\7--9---9/12-12----12-12-12/14----14-15-14h15p14----12----
G|--------------------------------------------------------------------
D|--------------------------------------------------------------------
A|--------------------------------------------------------------------
E|--------------------------------------------------------------------

Kumati nivar sumati Ke sangi
E|--------------------------------------------------------------------
B|---7/10--9\7--9---9/12-12----12-12-12/14----14-15-14h15p14----12----
G|--------------------------------------------------------------------
D|--------------------------------------------------------------------
A|--------------------------------------------------------------------
E|--------------------------------------------------------------------

Kanchan varan viraj subesa
E|--------------------------------------------------------------------
B|---7/10--9\7--9---9/12-12----12-12-12/14----14-15-14h15p14----12----
G|--------------------------------------------------------------------
D|--------------------------------------------------------------------
A|--------------------------------------------------------------------
E|--------------------------------------------------------------------

Kanan Kundal Kunchit Kesha
E|---9/12-12\10-10\9---9\7---7/9---4h-5p4--------------
B|------------------------------------------7/9--7-----
G|-----------------------------------------------------
D|-----------------------------------------------------
A|-----------------------------------------------------
E|-----------------------------------------------------
tabs and chords, guitar tabs, music transcription, music technology, deep learning, music information retrieval, transcribe into tabs & chords, chordify, music renditions, songsterr, reverbnation, tabulature, bollywood chords, ultimate guitar, yousician, guitar lessons, acoustic guitar, electric guitar, guitar tuner, 911 tabs