Guitar Tabs for Handclaps

(/) Slide Up  (\) Slide Down  (h) Hammer On  (p) Pull Off  (b) Bend (r) Release (v) Vibrato (x) Muted

Tabs & Chords
BPM : 117.0
Check Track 2 for Chord Positions 

                A                 C              Em       D           Em                      
E|--0--0--------------------6--6-----6-----------3-----5--5-----0-----------5--------------0--
B|--------3-----3--------------------------3-----------------------------3-----3-----3--------
G|--------------------------------------------------------------------------------------------
D|--------------------2-----------0-----------------------------------3-----------2-----------
A|-----------------------2--------------------------------------------------------------------
E|--------------------------------------------------------------------------------------------

                         Am                         D  A                                      
E|--0-----0--5--0--0-----5--5--0--0--0--3-----5-----0--------0--0-----0--------------------0--
B|-----------------------------------------------------3--------------------------------------
G|--------------------------------------------------------------------------------------------
D|--------------------------------------------------------------------------------------------
A|-----------------------------------------------------------------------------0--0-----------
E|-----------------------------------------------------------------------1--0-----------------

       E  Em                   E                                                        A        
E|-----0--0--0--0-----0--0-----0--0--0-----0--------0--0--------0--0-----0-----0--------------0--
B|-----------------------------------------------------------------------------------------------
G|-----------------------------------------------------------------------------------------------
D|--------------------------------------------3--------------3-----------------------4--2--------
A|-----------------------------------------------------------------------------------------------
E|-----------------------------------------------------------------------------------------------

    Am                   
E|--5--5--5-----0--0--5--
B|-----------------------
G|-----------------------
D|-----------------------
A|-----------------------
E|-----------------------

Guitar Tabs for Handclaps






                A                 C              Em       D           Em                      
E|--------------0-----------------0--------------0--------2-----------0-----------------------
B|--------------2-----------------1--------------0--------3-----------0-----------------------
G|--------------2-----------------0--------------0--------2-----------0-----------------------
D|--------------2-----------------2--------------2--------0-----------2-----------------------
A|--------------0-----------------3--------------2--------------------2-----------------------
E|-----------------------------------------------0--------------------0-----------------------

                         Am                         D  A                                      
E|-----------------------0--------------------------2--0--------------------------------------
B|-----------------------1--------------------------3--2--------------------------------------
G|-----------------------2--------------------------2--2--------------------------------------
D|-----------------------2--------------------------0--2--------------------------------------
A|-----------------------0-----------------------------0--------------------------------------
E|--------------------------------------------------------------------------------------------

       E  Em                   E                                                        A        
E|-----0--0--------------------0--------------------------------------------------------0--------
B|-----0--0--------------------0--------------------------------------------------------2--------
G|-----1--0--------------------1--------------------------------------------------------2--------
D|-----2--2--------------------2--------------------------------------------------------2--------
A|-----2--2--------------------2--------------------------------------------------------0--------
E|-----0--0--------------------0-----------------------------------------------------------------

    Am                   
E|--0--------------------
B|--1--------------------
G|--2--------------------
D|--2--------------------
A|--0--------------------
E|-----------------------

tabs and chords, guitar tabs, music transcription, music technology, deep learning, music information retrieval, transcribe into tabs & chords, chordify, music renditions, songsterr, reverbnation, tabulature, bollywood chords, ultimate guitar, yousician, guitar lessons, acoustic guitar, electric guitar, guitar tuner, 911 tabs