Guitar Tabs for Guns N' Roses - Don't Cry (guitar Solo)

Guns N' Roses - Don't Cry (Guitar Solo)

1st Part
E|--------------------------------------------------------------------------------------------------------
B|--------------------------------------8-----------------------8--8--------------------------------------
G|---7b-9r7--5--7v-----7b-9r7--5---7b9---------7b-9r7--5---7b9------------7b-9r7--5-----------------------
D|--------------------------------------------------------------------------------------7--5--------------
A|---------------------------------------------------------------------------------------------5b-6r5--3v-
E|--------------------------------------------------------------------------------------------------------

2nd Part
E|-----------------------------------------------------------------
B|--------------------------------------------------15b17-13-------
G|---7/9---9/10----10/12----12/14-------------12h14----------14-12-
D|--------------------------------------12h14----------------------
A|---5/7---7/8------8/10----10/12-12h15----------------------------
E|-----------------------------------------------------------------

3rd Part
E|-----------------------------------------------------
B|-----------------------------------------------------
G|-----------------------------------------------------
D|--14-14h15p14p12-14p12-12-10-12p10-------10----------
A|-----------------------------------12p10----12-10-12-
E|-----------------------------------------------------

4th Part
E|--------15-15----------------------15-15----------------
B|--15b17-------15b17r15-13----15b17-------15b17r15-13-12-
G|--------------------------------------------------------
D|--------------------------------------------------------
A|--------------------------------------------------------
E|--------------------------------------------------------

5th Part
E|--------------------------------13----------
B|--------12-13/15-13-12-13----------15b17-15-
G|-----13-------------------14----------------
D|--14-------------------------15-------------
A|--------------------------------------------
E|--------------------------------------------

6th Part
E|--------------------------------------------
B|--17r15-13----------------------------------
G|-----------12b14-14-12----------------12b14-
D|-----------------------14-12b14-12-10-12b14-
A|--------------------------------------------
E|--------------------------------------------

tabs and chords, guitar tabs, music transcription, music technology, deep learning, music information retrieval, transcribe into tabs & chords, chordify, music renditions, songsterr, reverbnation, tabulature, bollywood chords, ultimate guitar, yousician, guitar lessons, acoustic guitar, electric guitar, guitar tuner, 911 tabs