Guitar Tabs for Guns N' Roses - Don't Cry

Guns N' Roses - Don't Cry 

Intro
E|--------------0--------------------1--------------------3--------
B|-----------------1--------------3-----3--------------3-----3-----
G|-----------2--------2--------2-----------2--------------------0--
D|--------2--------------2--0-----------------------0--------------
A|-----0-----------------------------------------2-----------------
E|--3-----------------------------------------3--------------------

E|-----------------------------------0-----------------1-----------------------0--
B|--------1--------1--------------------1-----------3-----3--------3-----------1--
G|-----0--------0-----------------2--------2-----2-----------2-----0-----------2--
D|-----------------------------2--------------0--------------------------------2--
A|--3--------2--------3--2--0-----------------------------------------------0--0--
E|--------------------------------------------------------------3-----0--3--------

1st Verse

(Am)            (Dm)
  Talk to me softly
  
       (G)                (C)  (G/B) 
There's something in your eyes

(Am)                 (Dm)
  Don't hang your head in sorrow
  
(G)                  (C)  (G/B)
  And please don't cry
  
(Am)                (Dm)
  I know how you feel inside
  
(G)                  (C)  (G/B) 
  I've been there before
  
(Am)            (Dm)
  Something changing inside you
  
(G)              (C)  (G/B) 
  And don't you know

Chorus
(F)            (G)    (Am)
  Don't you cry tonight, I still love you baby

(F)             (G)     (Am)
  Don't you cry tonight
  
(F)           (G)        (C)
  Don't you cry all tonight
  
            (G/B)    (Am)       (G)   (F)
There's a heaven above you baby

                (G)        (Am)
And don't you cry all tonight

2nd Verse

(Am)            (Dm)
  Give me a whisper
  
(G)              (C)  (G/B)
  And give me a sign
  
(Am)           (Dm)
  Give me a kiss before
  
    (G)            (C)  (G/B) 
You  tell me goodbye

(Am)           (Dm)
  Don't you take it so hard now
  
(G)                             (C)  (G/B) 
  And please don't take it so bad
  
(Am)               (Dm)
  I'll still be thinking of you
  
G5                   (C) (G/B) (Am7) (G)
  And the times we haa a a a a ad baby

Chorus

(F)             (G)    (Am)
Don't you cry tonight

(F)             (G)    (Am)
  Don't you cry tonight
  
(F)             (G)        (C)
  Don't you cry all tonight
  
            (G/B)    (A5)       (G5)   (F5)
There's a heaven above you baby

                (G5)       (A5)
And don't you cry all tonight

Guitar Solo

https://www.acousterr.com/tab/guns-n-roses-dont-cry-guitar-solo

3rd Verse

(Dm)              (G)
   And please remember
   
  (C)  (G/B)      (Am)
  That I never lied
  
(Dm)              (G)
  And please remember
  
 (C)  (G/B)      (Am)
  How I felt inside now honey
  
(Dm)            (G)
  You gotta make it your own way
  
  
 (C)  (G/B)         (Am)
But you'll be alright now sugar

(Dm)              (G)
  You'll feel better tomorrow
  
(C5)       (G/B)     (A5)       (G5)
  Come the morning light now baby

Chorus

(F5)            (G5)   (A5)
  Don't you cry tonight
  
(F5)            (G5)   (A5)
  Don't you cry tonight
  
(F5)            (G5)   (C5)
  Don't you cry tonight
  
          (G/B)     (A5)       (G5)
There's a heaven above you baby

(F5)            (G5) 
  Don't you cry
  
(F5)            (G5)
Don't you ever cry
  
(F5)            (G5)   (E5)
  Don't you cry tonight
  
       (F5)
Baby, maybe someday

(F5)            (G5)
Don't you cry
  
(F5)            (G5)  
Don't you ever cry
  
(F5)            (G5)   (C5)
  Don't you cry tonight
----------------------------------------------------------------------------------------------------
Chords

    Am    Dm    G     C
E|--0-----1-----3-----0--
B|--1-----3-----3-----1--
G|--2-----2-----0-----0--
D|--2-----0-----0-----2--
A|--0-----------2-----3--
E|--------------3--------

   G/B    F     C5    A5
E|--3-----1--------------
B|--3-----1--------------
G|--0-----2-----5-----2--
D|--0-----3-----5-----2--
A|--2-----3-----3-----0--
E|--------1--------------

    F5    G5    E5
E|-----------------
B|-----------------
G|-----------------
D|--3-----5-----2--
A|--3-----5-----2--
E|--1-----3-----0--
tabs and chords, guitar tabs, music transcription, music technology, deep learning, music information retrieval, transcribe into tabs & chords, chordify, music renditions, songsterr, reverbnation, tabulature, bollywood chords, ultimate guitar, yousician, guitar lessons, acoustic guitar, electric guitar, guitar tuner, 911 tabs