Guitar Tabs for Guns N' Roses - Patience (guitar Solo)

Guns N' Roses - Patience (Guitar Solo)

Tuning -> Half-Step Down (Eb-Ab-Db-Gb-Bb-Eb)

1st Part
E|---8p7--8---8/10-8--7---------------8p7---8/10----10/12-
B|-----------------------10-8--8--------------------------
G|--------------------------------------------------------
D|--------------------------------------------------------
A|--------------------------------------------------------
E|--------------------------------------------------------

2nd Part
E|---8p7--8---8/10-8--7--------------10/12----10-10----12/14-12-10-10-
B|-----------------------10-8--8--------------------------------------
G|--------------------------------------------------------------------
D|--------------------------------------------------------------------
A|--------------------------------------------------------------------
E|--------------------------------------------------------------------

3rd Part
E|-----------------------------------------------
B|-----------8-----------------------------------
G|---7b9--9------9r7--5--7-----------7-----------
D|------------------------------7b9------9r7--5--
A|-----------------------------------------------
E|-----------------------------------------------

4th Part
E|--------------------------------------------------
B|-----------8--------------------8--10b12r10-8-----
G|---7b9--9------9r7--5--7---7/9-----------------9--
D|--------------------------------------------------
A|--------------------------------------------------
E|--------------------------------------------------

5th Part
E|--------------------------------------------------------------------
B|--8--10-10b12r10-10----8--10-8--10b12r10-10----8--10-8--10/12-10-10-
G|--------------------------------------------------------------------
D|--------------------------------------------------------------------
A|--------------------------------------------------------------------
E|--------------------------------------------------------------------

6th Part
E|--------------------------------------------------------------------
B|------------------------------7b8--7------------------------7b8--7--
G|---7/9--7-----------------------------------------------------------
D|------------9p7--------7---------------9p7--------7-----------------
A|------------------8h9-----5------------------8h9-----5--------------
E|--------------------------------------------------------------------
tabs and chords, guitar tabs, music transcription, music technology, deep learning, music information retrieval, transcribe into tabs & chords, chordify, music renditions, songsterr, reverbnation, tabulature, bollywood chords, ultimate guitar, yousician, guitar lessons, acoustic guitar, electric guitar, guitar tuner, 911 tabs