Bass Tabs for Gub Warmup

(/) Slide Up  (\) Slide Down  (h) Hammer On  (p) Pull Off  (b) Bend (r) Release (v) Vibrato (x) Muted

Tabs for Song : 

G|--------------------------------------------------------------------------------------------------------------------------------------------1-----1--2--1--2--3--2--3--4--3--
D|--------------------------------------------------------------------------------------------------------2-----2--3--2--3--4--3--4--5--4--5-----5-----------------------------
A|--------------------------------------------------------------------3-----3--4--3--4--5--4--5--6--5--6-----6-----------------------------------------------------------------
E|--------------------------------4-----4--5--4--5--6--5--6--7--6--7-----7-----------------------------------------------------------------------------------------------------
B|--5--6--5--6--7--6--7--8--7--8-----8-----------------------------------------------------------------------------------------------------------------------------------------

G|--4--3--4--3--2--3--2--1--2--1-----1--------------------------------------------------------------------------------------------------------------------------------------------------
D|--------------------------------5-----5--4--5--4--3--4--3--2--3--2-----2--------------------------------------------------------------------------------------------------------------
A|--------------------------------------------------------------------6-----6--5--6--5--4--5--4--3--4--3-----3--------------------------------------------------------------------------
E|--------------------------------------------------------------------------------------------------------7-----7--6--7--6--5--6--5--4--5--4-----4--------------------------------------
B|--------------------------------------------------------------------------------------------------------------------------------------------8-----8--7--8--7--6--7--6--5--6--5--

Move up 1 fret, Repeat!


G|--------------------------------------------------------------------------------------------------------------------------------------------2-----2--3--2--3--4--3--4--5--4--
D|--------------------------------------------------------------------------------------------------------3-----3--4--3--4--5--4--5--6--5--6-----6-----------------------------
A|--------------------------------------------------------------------4-----4--5--4--5--6--5--6--7--6--7-----7-----------------------------------------------------------------
E|--------------------------------5-----5--6--5--6--7--6--7--8--7--8-----8-----------------------------------------------------------------------------------------------------
B|--6--7--6--7--8--7--8--9--8--9-----9-----------------------------------------------------------------------------------------------------------------------------------------

G|--5--4--5--4--3--4--3--2--3--2-----2--------------------------------------------------------------------------------------------------------------------------------------------
D|--------------------------------6-----6--5--6--5--4--5--4--3--4--3-----3--------------------------------------------------------------------------------------------------------
A|--------------------------------------------------------------------7-----7--6--7--6--5--6--5--4--5--4-----4--------------------------------------------------------------------
E|--------------------------------------------------------------------------------------------------------8-----8--7--8--7--6--7--6--5--6--5-----5--------------------------------
B|--------------------------------------------------------------------------------------------------------------------------------------------9-----9--8--9--8--7--8--7--6--7--6--

KEEP GOING :)

tabs and chords, guitar tabs, music transcription, music technology, deep learning, music information retrieval, transcribe into tabs & chords, chordify, music renditions, songsterr, reverbnation, tabulature, bollywood chords, ultimate guitar, yousician, guitar lessons, acoustic guitar, electric guitar, guitar tuner, 911 tabs