Bass Tabs for 1 Note Per Finger Warmup

(/) Slide Up  (\) Slide Down  (h) Hammer On  (p) Pull Off  (b) Bend (r) Release (v) Vibrato (x) Muted

Tabs for Song : 


G|--------------------------------------------------1--2--3--4--
D|--------------------------------------1--2--3--4--------------
A|--------------------------1--2--3--4--------------------------
E|--------------1--2--3--4--------------------------------------
B|--1--2--3--4--------------------------------------------------

G|--4--3--2--1--------------------------------------------------
D|--------------4--3--2--1--------------------------------------
A|--------------------------4--3--2--1--------------------------
E|--------------------------------------4--3--2--1--------------
B|--------------------------------------------------4--3--2--1--

MOVE UP 1 FRET, REPEAT!


G|--------------------------------------------------2--3--4--5--
D|--------------------------------------2--3--4--5--------------
A|--------------------------2--3--4--5--------------------------
E|--------------2--3--4--5--------------------------------------
B|--2--3--4--5--------------------------------------------------

G|--5--4--3--2--------------------------------------------------
D|--------------5--4--3--2--------------------------------------
A|--------------------------5--4--3--2--------------------------
E|--------------------------------------5--4--3--2--------------
B|--------------------------------------------------5--4--3--2--
tabs and chords, guitar tabs, music transcription, music technology, deep learning, music information retrieval, transcribe into tabs & chords, chordify, music renditions, songsterr, reverbnation, tabulature, bollywood chords, ultimate guitar, yousician, guitar lessons, acoustic guitar, electric guitar, guitar tuner, 911 tabs