Bass Tabs for Descending 1 Note Per Finger Warmup

(/) Slide Up  (\) Slide Down  (h) Hammer On  (p) Pull Off  (b) Bend (r) Release (v) Vibrato (x) Muted

 
G|--------------------------------------------------1--2--3--4--
D|--------------------------------------2--3--4--5--------------
A|--------------------------3--4--5--6--------------------------
E|--------------4--5--6--7--------------------------------------
B|--5--6--7--8--------------------------------------------------

G|--4--3--2--1--------------------------------------------------
D|--------------5--4--3--2--------------------------------------
A|--------------------------6--5--4--3--------------------------
E|--------------------------------------7--6--5--4--------------
B|--------------------------------------------------8--7--6--5--

MOVE UP 1 FRET, REPEAT!


G|--------------------------------------------------2--3--4--5--
D|--------------------------------------3--4--5--6--------------
A|--------------------------4--5--6--7--------------------------
E|--------------5--6--7--8--------------------------------------
B|--6--7--8--9--------------------------------------------------

G|--5--4--3--2--------------------------------------------------
D|--------------6--5--4--3--------------------------------------
A|--------------------------7--6--5--4--------------------------
E|--------------------------------------8--7--6--5--------------
B|--------------------------------------------------9--8--7--6--

KEEP GOING!
tabs and chords, guitar tabs, music transcription, music technology, deep learning, music information retrieval, transcribe into tabs & chords, chordify, music renditions, songsterr, reverbnation, tabulature, bollywood chords, ultimate guitar, yousician, guitar lessons, acoustic guitar, electric guitar, guitar tuner, 911 tabs