Guitar Tabs for Goli

(/) Slide Up  (\) Slide Down  (h) Hammer On  (p) Pull Off  (b) Bend (r) Release (v) Vibrato (x) Muted

Tabs for Song : 

Song lyrics here
E|--
B|--
G|--
D|--
A|--
E|--

Song lyrics here
E|--
B|--
G|--
D|--
A|--
E|--

Paste any tab in acousterr's tab maker and we'll play it !!!
Now supports capo and sound effects for vibrato/pull-off/hammer/bends/mutes etc !!! Checkout help section
|-7-----------7p0---------|---------7---8---7h8\5---7-5-/0------|
E|-----------------------------------------------------------------------------------
B|--------0--------------0----------|---------------0-----0-----------0--------5----|
G|--------------0--------------0----|---------0-------------------------------------|
D|----------------------------------|-----------------------------------------------|
A|----------------------------------|-----------------------------------------------|
E|--0-------------------------------|---0-------------------------------------------|
 
E|------------------2p0-------------|---------------------0-----0-----0----|
B|--5-----------5--------5----------|---------------5-----------5-----5----|
G|--------5--------------------5----|---------5-----------------5-----5----|
D|----------------------------------|--------------------------------------|
A|--0-------------------------------|---0-----------------------0-----2----|
E|----------------------------------|--------------------------------------|
 fghooggh
tabs and chords, guitar tabs, music transcription, music technology, deep learning, music information retrieval, transcribe into tabs & chords, chordify, music renditions, songsterr, reverbnation, tabulature, bollywood chords, ultimate guitar, yousician, guitar lessons, acoustic guitar, electric guitar, guitar tuner, 911 tabs