Bass Tabs for Glass Of Water (bass)

(/) Slide Up  (\) Slide Down  (h) Hammer On  (p) Pull Off  (b) Bend (r) Release (v) Vibrato (x) Muted

Glass of Water (Bass) 

Verse
G|--------------------------------------------------------------
D|--0--0--0--0--0--5--5--2--2--2--0--0--0--0--0--5--5--2--2--2--
A|--------------------------------------------------------------
D|--------------------------------------------------------------

Pre Chorus
G|--------------------------------------------
D|--5--5--5--5--5--5--5--5--5--7--7--7--7--7--
A|--------------------------------------------
D|--------------------------------------------

Chorus
G|--------------------------------------------------------
D|-----------------------------------------------0--0--0--
A|-----------------------------2--2--2--2--2--2-----------
D|--0--0--0--0--0--0--4--4--4-----------------------------

End of Chorus

G|--------------------------------------------------------
D|--------------------------------------------------------
A|--------------------7--7--7--5--------------------------
D|--5--5--5--5--5--5--------------5--5--5--5--5--7--7--7--
tabs and chords, guitar tabs, music transcription, music technology, deep learning, music information retrieval, transcribe into tabs & chords, chordify, music renditions, songsterr, reverbnation, tabulature, bollywood chords, ultimate guitar, yousician, guitar lessons, acoustic guitar, electric guitar, guitar tuner, 911 tabs