Bass Tabs for Glass Of Water (bass)

(/) Slide Up  (\) Slide Down  (h) Hammer On  (p) Pull Off  (b) Bend (r) Release (v) Vibrato (x) Muted
Glass of Water

Verse
G|--------------------------------------
D|-----5--------5--------5--------5-----
A|--------7--------7--------7--------7--
D|--0--------0--------0--------0--------

Pre Chorus

G|--------------------------
D|-----------7--7--7--7--7--
A|--------------------------
D|--0-----------------------

Chorus (Switches to 7/4)

G|--------------------------------------------------------
D|-----------------------------------------------0--0--0--
A|-----------------------------2--2--2--2--2--2-----------
D|--0--0--0--0--0--0--4--4--4-----------------------------

tabs and chords, guitar tabs, music transcription, music technology, deep learning, music information retrieval, transcribe into tabs & chords, chordify, music renditions, songsterr, reverbnation, tabulature, bollywood chords, ultimate guitar, yousician, guitar lessons, acoustic guitar, electric guitar, guitar tuner, 911 tabs