Guitar Tabs for Glass Of Water

(/) Slide Up  (\) Slide Down  (h) Hammer On  (p) Pull Off  (b) Bend (r) Release (v) Vibrato (x) Muted
Glass of Water

Chords: D Asus4 A G F#m Bm C Gsus4 F Em Am 

Verse
E|--5--5--5--5--10----------------
B|--7--7--7--7--7--5--5--5--5--5--
G|--7--7--7--7--7--7--7--6--6--6--
D|--7--7--7--7--7--7--7--7--7--7--
A|--------------------------------
E|--------------------------------

Pre Chorus
E|--5--5--5--5--5-----------------9--9--9--9--9--
B|--8--8--8--8--8--5--5--5--5--5-----------------
G|--7--7--7--7--7--7--7--6--6--6-----------------
D|--5--5--5--5--5--5--5--5--5--5-----------------
A|-----------------------------------------------
E|-----------------------------------------------

Chorus (Switches to 7/4)

E|--------------------------------------------------------
B|--------------------------------------------------------
G|-----------------------------4--4--4--4--4--4--12-12-12-
D|--0--0--0--0--0--0--4--4--4--4--4--4--4--4--4--12-12-12-
A|--0--0--0--0--0--0--4--4--4--2--2--2--2--2--2--10-10-10-
E|--------------------------------------------------------

End of Chorus
E|-----------------------------
B|-----------------------------
G|--12-12-12-12-12-12----------
D|--12-12-12-12-12-12-2--2--2--
A|--10-10-10-10-10-10-2--2--2--
E|-----------------------------



tabs and chords, guitar tabs, music contests, music covers, songsterr, reverbnation, renditions, tabulature, bollywood chords, ultimate guitar, yousician, guitar lessons, torrins, fender, gibson, acoustic guitar, electric guitar, youtube covers, gootar, guitar tuner, A-Z tabs, 911 tabs